  0
SECTION
  2
ENTITIES
  0
LINE
  8
0
 10
4216.579
 20
1305.647
 30
0.0
 11
4216.579
 21
1210.397
 31
0.0
  0
LINE
  8
0
 10
4216.579
 20
1210.397
 30
0.0
 11
4216.579
 21
1115.147
 31
0.0
  0
LINE
  8
0
 10
4216.579
 20
1115.147
 30
0.0
 11
4089.579
 21
924.6466
 31
0.0
  0
LINE
  8
0
 10
4089.579
 20
924.6466
 30
0.0
 11
4216.579
 21
734.1467
 31
0.0
  0
LINE
  8
0
 10
4216.579
 20
734.1467
 30
0.0
 11
4343.579
 21
924.6466
 31
0.0
  0
LINE
  8
0
 10
4343.579
 20
924.6466
 30
0.0
 11
4216.579
 21
1115.147
 31
0.0
  0
LINE
  8
0
 10
4216.579
 20
1115.147
 30
0.0
 11
4343.579
 21
924.6466
 31
0.0
  0
LINE
  8
0
 10
4343.579
 20
924.6466
 30
0.0
 11
4216.579
 21
734.1467
 31
0.0
  0
LINE
  8
0
 10
4216.579
 20
734.1467
 30
0.0
 11
4216.579
 21
638.8967
 31
0.0
  0
LINE
  8
0
 10
4216.579
 20
638.8967
 30
0.0
 11
4026.079
 21
924.6466
 31
0.0
  0
LINE
  8
0
 10
4026.079
 20
924.6466
 30
0.0
 11
4216.579
 21
1210.397
 31
0.0
  0
LINE
  8
0
 10
4216.579
 20
1210.397
 30
0.0
 11
4407.079
 21
924.6466
 31
0.0
  0
LINE
  8
0
 10
4407.079
 20
924.6466
 30
0.0
 11
4216.579
 21
638.8967
 31
0.0
  0
LINE
  8
0
 10
4216.579
 20
638.8967
 30
0.0
 11
4216.579
 21
543.6467
 31
0.0
  0
LINE
  8
0
 10
4216.579
 20
543.6467
 30
0.0
 11
3962.579
 21
924.6466
 31
0.0
  0
LINE
  8
0
 10
3962.579
 20
924.6466
 30
0.0
 11
4216.579
 21
1305.647
 31
0.0
  0
LINE
  8
0
 10
4216.579
 20
1305.647
 30
0.0
 11
4470.579
 21
924.6466
 31
0.0
  0
LINE
  8
0
 10
4470.579
 20
924.6466
 30
0.0
 11
4216.579
 21
543.6467
 31
0.0
  0
CIRCLE
  8
0
 10
1000
 20
7000
 30
0.0
 40
100
  0
CIRCLE
  8
0
 10
2000
 20
7000
 30
0.0
 40
100
  0
CIRCLE
  8
0
 10
100
 20
100
 30
0.0
 40
125
  0
CIRCLE
  8
0
 10
200
 20
200
 30
0.0
 40
200
  0
CIRCLE
  8
0
 10
300
 20
300
 30
0.0
 40
200
  0
CIRCLE
  8
0
 10
350
 20
350
 30
0.0
 40
200
  0
CIRCLE
  8
0
 10
360
 20
360
 30
0.0
 40
200
  0
CIRCLE
  8
0
 10
370
 20
370
 30
0.0
 40
200
  0
ENDSEC
  0
EOF
