  0
SECTION
  2
ENTITIES
  0
LINE
  8
0
 10
0
 20
381
 30
0.0
 11
-190.1273
 21
5.722046E-06
 31
0.0
  0
LINE
  8
0
 10
-190.1273
 20
5.722046E-06
 30
0.0
 11
0
 21
94.93478
 31
0.0
  0
LINE
  8
0
 10
0
 20
94.93478
 30
0.0
 11
190.1273
 21
5.722046E-06
 31
0.0
  0
LINE
  8
0
 10
190.1273
 20
5.722046E-06
 30
0.0
 11
0
 21
-94.93477
 31
0.0
  0
LINE
  8
0
 10
0
 20
-94.93477
 30
0.0
 11
-190.1273
 21
5.722046E-06
 31
0.0
  0
LINE
  8
0
 10
-190.1273
 20
5.722046E-06
 30
0.0
 11
0
 21
-381
 31
0.0
  0
LINE
  8
0
 10
0
 20
-381
 30
0.0
 11
190.1273
 21
-762
 31
0.0
  0
LINE
  8
0
 10
190.1273
 20
-762
 30
0.0
 11
0
 21
-1143
 31
0.0
  0
CIRCLE
  8
0
 10
1000
 20
7000
 30
0.0
 40
100
  0
CIRCLE
  8
0
 10
1000
 20
8000
 30
0.0
 40
100
  0
CIRCLE
  8
0
 10
2000
 20
7000
 30
0.0
 40
100
  0
CIRCLE
  8
0
 10
2000
 20
8000
 30
0.0
 40
100
  0
CIRCLE
  8
0
 10
100
 20
100
 30
0.0
 40
125
  0
CIRCLE
  8
0
 10
200
 20
200
 30
0.0
 40
200
  0
CIRCLE
  8
0
 10
300
 20
300
 30
0.0
 40
200
  0
CIRCLE
  8
0
 10
350
 20
350
 30
0.0
 40
200
  0
CIRCLE
  8
0
 10
360
 20
360
 30
0.0
 40
200
  0
CIRCLE
  8
0
 10
370
 20
370
 30
0.0
 40
200
  0
ENDSEC
  0
EOF
