  0
SECTION
  2
ENTITIES
  0
LINE
  8
0
 10
4905.771
 20
1593.99
 30
0.0
 11
5667.774
 21
831.9927
 31
0.0
  0
LINE
  8
0
 10
5667.774
 20
831.9927
 30
0.0
 11
5604.588
 21
958.8127
 31
0.0
  0
LINE
  8
0
 10
5604.588
 20
958.8127
 30
0.0
 11
5667.774
 21
1021.993
 31
0.0
  0
LINE
  8
0
 10
5667.774
 20
1021.993
 30
0.0
 11
5730.958
 21
958.8127
 31
0.0
  0
LINE
  8
0
 10
5730.958
 20
958.8127
 30
0.0
 11
5667.774
 21
831.9927
 31
0.0
  0
LINE
  8
0
 10
5667.774
 20
831.9927
 30
0.0
 11
5667.774
 21
926.9927
 31
0.0
  0
LINE
  8
0
 10
5667.774
 20
926.9927
 30
0.0
 11
5667.774
 21
831.9927
 31
0.0
  0
LINE
  8
0
 10
5667.774
 20
831.9927
 30
0.0
 11
5794.589
 21
895.1726
 31
0.0
  0
LINE
  8
0
 10
5794.589
 20
895.1726
 30
0.0
 11
5857.768
 21
831.9927
 31
0.0
  0
LINE
  8
0
 10
5857.768
 20
831.9927
 30
0.0
 11
5794.589
 21
768.8123
 31
0.0
  0
LINE
  8
0
 10
5794.589
 20
768.8123
 30
0.0
 11
5667.774
 21
831.9927
 31
0.0
  0
LINE
  8
0
 10
5667.774
 20
831.9927
 30
0.0
 11
5762.773
 21
831.9927
 31
0.0
  0
LINE
  8
0
 10
5762.773
 20
831.9927
 30
0.0
 11
5667.774
 21
831.9927
 31
0.0
  0
LINE
  8
0
 10
5667.774
 20
831.9927
 30
0.0
 11
5730.958
 21
705.1728
 31
0.0
  0
LINE
  8
0
 10
5730.958
 20
705.1728
 30
0.0
 11
5667.774
 21
641.9923
 31
0.0
  0
LINE
  8
0
 10
5667.774
 20
641.9923
 30
0.0
 11
5604.588
 21
705.1728
 31
0.0
  0
LINE
  8
0
 10
5604.588
 20
705.1728
 30
0.0
 11
5667.774
 21
831.9927
 31
0.0
  0
LINE
  8
0
 10
5667.774
 20
831.9927
 30
0.0
 11
5667.774
 21
736.9928
 31
0.0
  0
LINE
  8
0
 10
5667.774
 20
736.9928
 30
0.0
 11
5667.774
 21
831.9927
 31
0.0
  0
LINE
  8
0
 10
5667.774
 20
831.9927
 30
0.0
 11
5540.958
 21
768.8123
 31
0.0
  0
LINE
  8
0
 10
5540.958
 20
768.8123
 30
0.0
 11
5477.769
 21
831.9927
 31
0.0
  0
LINE
  8
0
 10
5477.769
 20
831.9927
 30
0.0
 11
5540.958
 21
895.1726
 31
0.0
  0
LINE
  8
0
 10
5540.958
 20
895.1726
 30
0.0
 11
5667.774
 21
831.9927
 31
0.0
  0
LINE
  8
0
 10
5667.774
 20
831.9927
 30
0.0
 11
5572.772
 21
831.9927
 31
0.0
  0
LINE
  8
0
 10
5572.772
 20
831.9927
 30
0.0
 11
5667.774
 21
831.9927
 31
0.0
  0
LINE
  8
0
 10
5667.774
 20
831.9927
 30
0.0
 11
4905.771
 21
69.99001
 31
0.0
  0
CIRCLE
  8
0
 10
1000
 20
7000
 30
0.0
 40
100
  0
CIRCLE
  8
0
 10
2500
 20
8000
 30
0.0
 40
100
  0
CIRCLE
  8
0
 10
4000
 20
7000
 30
0.0
 40
100
  0
CIRCLE
  8
0
 10
100
 20
100
 30
0.0
 40
128
  0
CIRCLE
  8
0
 10
200
 20
200
 30
0.0
 40
192
  0
CIRCLE
  8
0
 10
300
 20
300
 30
0.0
 40
163
  0
CIRCLE
  8
0
 10
350
 20
350
 30
0.0
 40
200
  0
CIRCLE
  8
0
 10
360
 20
360
 30
0.0
 40
200
  0
CIRCLE
  8
0
 10
370
 20
370
 30
0.0
 40
200
  0
ENDSEC
  0
EOF
