  0
SECTION
  2
ENTITIES
  0
ARC
  8
0
 10
4503.753
 20
1712.45
 30
0.0
 40
199.4973
 50
5.781291
 51
205.046
  0
ARC
  8
0
 10
4555.588
 20
1704.52
 30
0.0
 40
244.8386
 50
198.2128
 51
251.3363
  0
ARC
  8
0
 10
4382.879
 20
1165.671
 30
0.0
 40
321.0626
 50
354.0789
 51
72.91031
  0
ARC
  8
0
 10
5021.579
 20
1165.671
 30
0.0
 40
321.0626
 50
107.0897
 51
185.9212
  0
ARC
  8
0
 10
4848.879
 20
1704.52
 30
0.0
 40
244.8386
 50
288.6636
 51
341.7872
  0
ARC
  8
0
 10
4900.72
 20
1712.45
 30
0.0
 40
199.4973
 50
334.954
 51
174.2187
  0
ARC
  8
0
 10
4843.952
 20
1771.439
 30
0.0
 40
146.9526
 50
116.1524
 51
195.3472
  0
ARC
  8
0
 10
4769.661
 20
1939.059
 30
0.0
 40
36.9572
 50
284.9285
 51
34.62246
  0
ARC
  8
0
 10
4834.431
 20
1982.819
 30
0.0
 40
41.21942
 50
350.7931
 51
213.5298
  0
ARC
  8
0
 10
4915.842
 20
1981.989
 30
0.0
 40
41.12759
 50
188.0602
 51
40.26173
  0
ARC
  8
0
 10
4975.051
 20
2065.469
 30
0.0
 40
63.33664
 50
311.6297
 51
243.9414
  0
ARC
  8
0
 10
5041.521
 20
2008.639
 30
0.0
 40
26.18365
 50
158.7377
 51
26.54291
  0
ARC
  8
0
 10
5120.299
 20
2023.499
 30
0.0
 40
55.44125
 50
259.0601
 51
183.2705
  0
ARC
  8
0
 10
5157.511
 20
1895.959
 30
0.0
 40
87.30801
 50
123.1387
 51
17.69431
  0
LINE
  8
0
 10
5240.68
 20
1922.499
 30
0.0
 11
5246.969
 21
2157.459
 31
0.0
  0
ARC
  8
0
 10
5272.379
 20
2160.908
 30
0.0
 40
25.64147
 50
332.2151
 51
187.7306
  0
ARC
  8
0
 10
5362.657
 20
2108.529
 30
0.0
 40
78.76821
 50
149.1182
 51
241.278
  0
ARC
  8
0
 10
5344.469
 20
2067.269
 30
0.0
 40
34.06741
 50
234.7452
 51
335.4742
  0
ARC
  8
0
 10
5278.6
 20
2112.749
 30
0.0
 40
113.7524
 50
328.3893
 51
37.34573
  0
ARC
  8
0
 10
5398.8
 20
2210.149
 30
0.0
 40
41.1408
 50
336.7966
 51
223.6422
  0
ARC
  8
0
 10
5491.739
 20
2168.888
 30
0.0
 40
60.54601
 50
155.5655
 51
270.4928
  0
ARC
  8
0
 10
5506.329
 20
2090.779
 30
0.0
 40
22.5109
 50
308.6835
 51
128.6835
  0
ARC
  8
0
 10
5551.881
 20
2049.479
 30
0.0
 40
39.41832
 50
143
 51
293.9547
  0
ARC
  8
0
 10
5587.447
 20
1962.54
 30
0.0
 40
54.54709
 50
284.7042
 51
111.0248
  0
ARC
  8
0
 10
5622.999
 20
1802.14
 30
0.0
 40
109.8135
 50
101.4027
 51
278.8957
  0
ARC
  8
0
 10
5652.647
 20
1671.959
 30
0.0
 40
25.11096
 50
252.902
 51
120.2729
  0
ARC
  8
0
 10
5605.479
 20
1586.27
 30
0.0
 40
73.40514
 50
57.17894
 51
221.0759
  0
ARC
  8
0
 10
5530.797
 20
1492.7
 30
0.0
 40
49.28696
 50
290.9029
 51
66.89185
  0
ARC
  8
0
 10
5570.431
 20
1376.081
 30
0.0
 40
73.93867
 50
107.3468
 51
251.2198
  0
ARC
  8
0
 10
5544.137
 20
1241.8
 30
0.0
 40
64.33005
 50
259.4982
 51
87.78459
  0
ARC
  8
0
 10
5532.569
 20
1417.851
 30
0.0
 40
239.3059
 50
228.8864
 51
269.9626
  0
ARC
  8
0
 10
5429.737
 20
1272.851
 30
0.0
 40
64.95763
 50
110.8511
 51
212.9082
  0
ARC
  8
0
 10
5392.94
 20
1367.66
 30
0.0
 40
36.75087
 50
291.8692
 51
88.16338
  0
ARC
  8
0
 10
5391.08
 20
1483.271
 30
0.0
 40
78.94076
 50
73.91006
 51
272.1999
  0
ARC
  8
0
 10
5415.421
 20
1631.08
 30
0.0
 40
72.00087
 50
268.0413
 51
107.63
  0
ARC
  8
0
 10
5394.718
 20
1765.83
 30
0.0
 40
66.13457
 50
67.47792
 51
269.0401
  0
ARC
  8
0
 10
5416.759
 20
1886.219
 30
0.0
 40
59.39779
 50
273.1805
 51
52.22618
  0
ARC
  8
0
 10
5387.481
 20
1896.19
 30
0.0
 40
75.3617
 50
29.38949
 51
203.8984
  0
ARC
  8
0
 10
5267.79
 20
1851.3
 30
0.0
 40
52.77383
 50
252.4296
 51
15.78581
  0
ARC
  8
0
 10
5271.09
 20
1654.139
 30
0.0
 40
148.1012
 50
97.4571
 51
172.045
  0
ARC
  8
0
 10
5160.729
 20
1663.209
 30
0.0
 40
38.08237
 50
162.5341
 51
311.853
  0
ARC
  8
0
 10
5265.241
 20
1622.12
 30
0.0
 40
80.1059
 50
78.11156
 51
170.8602
  0
ARC
  8
0
 10
5276.291
 20
1675.809
 30
0.0
 40
25.2863
 50
353.8049
 51
77.55683
  0
ARC
  8
0
 10
5152.638
 20
1688.149
 30
0.0
 40
149.5455
 50
253.5301
 51
354.2173
  0
ARC
  8
0
 10
5098.087
 20
1494.24
 30
0.0
 40
51.94098
 50
76.46465
 51
216.758
  0
ARC
  8
0
 10
5032.15
 20
1444.43
 30
0.0
 40
30.69873
 50
245.9309
 51
37.59999
  0
ARC
  8
0
 10
4986.481
 20
1328.36
 30
0.0
 40
94.07277
 50
69.36525
 51
24.01987
  0
ARC
  8
0
 10
5091.408
 20
1387
 30
0.0
 40
27.83733
 50
3.187901
 51
226.9421
  0
ARC
  8
0
 10
5152.321
 20
1402.53
 30
0.0
 40
35.94794
 50
202.8947
 51
31.61936
  0
ARC
  8
0
 10
5216.959
 20
1435.64
 30
0.0
 40
36.8962
 50
19.96515
 51
202.7432
  0
ARC
  8
0
 10
5201.75
 20
1420.92
 30
0.0
 40
56.87959
 50
333.462
 51
28.70167
  0
ARC
  8
0
 10
5018.342
 20
1462.99
 30
0.0
 40
243.8245
 50
298.4626
 51
343.932
  0
ARC
  8
0
 10
5162.091
 20
1193.021
 30
0.0
 40
62.06482
 50
116.349
 51
286.2982
  0
ARC
  8
0
 10
5161.271
 20
1235.471
 30
0.0
 40
103.6368
 50
280.1361
 51
330.0099
  0
ARC
  8
0
 10
5299.601
 20
1151.601
 30
0.0
 40
58.20242
 50
337.7798
 51
146.5651
  0
ARC
  8
0
 10
5172.902
 20
1186.931
 30
0.0
 40
189.4587
 50
295.5803
 51
342.3827
  0
ARC
  8
0
 10
5261.388
 20
962.1508
 30
0.0
 40
54.30931
 50
97.06525
 51
270.1359
  0
ARC
  8
0
 10
5269.489
 20
878.4705
 30
0.0
 40
30.43154
 50
287.2713
 51
105.1961
  0
ARC
  8
0
 10
5270.91
 20
824.0016
 30
0.0
 40
26.52971
 50
73.30697
 51
279.304
  0
ARC
  8
0
 10
5238.112
 20
751.3016
 30
0.0
 40
59.49355
 50
159.4941
 51
51.43221
  0
ARC
  8
0
 10
5150.421
 20
764.7513
 30
0.0
 40
32.80751
 50
13.02252
 51
209.6858
  0
ARC
  8
0
 10
5075.597
 20
717.0414
 30
0.0
 40
55.99753
 50
237.7048
 51
34.18872
  0
ARC
  8
0
 10
5044.929
 20
711.9718
 30
0.0
 40
42.27827
 50
85.03371
 51
271.0154
  0
ARC
  8
0
 10
5045.959
 20
779.291
 30
0.0
 40
25.33622
 50
275.9453
 51
97.37471
  0
ARC
  8
0
 10
5033.288
 20
833.8112
 30
0.0
 40
30.86675
 50
88.79844
 51
287.7787
  0
ARC
  8
0
 10
5055.861
 20
808.0007
 30
0.0
 40
60.7623
 50
46.25296
 51
111.1459
  0
ARC
  8
0
 10
5121.232
 20
891.4307
 30
0.0
 40
45.92203
 50
239.4226
 51
46.79111
  0
ARC
  8
0
 10
5045.148
 20
867.5807
 30
0.0
 40
121.8462
 50
28.0615
 51
68.42857
  0
ARC
  8
0
 10
5084.85
 20
963.9904
 30
0.0
 40
17.65846
 50
73.21736
 51
211.7814
  0
ARC
  8
0
 10
5004.421
 20
953.3813
 30
0.0
 40
65.43006
 50
165.5518
 51
1.147393
  0
ARC
  8
0
 10
5122.55
 20
912.1606
 30
0.0
 40
190.3896
 50
125.5496
 51
162.4078
  0
ARC
  8
0
 10
4944.782
 20
1096.791
 30
0.0
 40
73.3627
 50
336.0945
 51
98.13778
  0
ARC
  8
0
 10
4926.999
 20
1141.971
 30
0.0
 40
28.42397
 50
74.92329
 51
204.2291
  0
ARC
  8
0
 10
4847.639
 20
1112.47
 30
0.0
 40
56.341
 50
121.9803
 51
18.45281
  0
ARC
  8
0
 10
4777.888
 20
1182.9
 30
0.0
 40
45.88669
 50
330.4336
 51
164.4416
  0
ARC
  8
0
 10
4805.168
 20
1152.11
 30
0.0
 40
83.47433
 50
148.9128
 51
235.2491
  0
ARC
  8
0
 10
4756.14
 20
1064.341
 30
0.0
 40
19.23417
 50
276.8077
 51
85.6851
  0
ARC
  8
0
 10
4746.76
 20
925.5811
 30
0.0
 40
120.2377
 50
84.43519
 51
145.5143
  0
ARC
  8
0
 10
4673.342
 20
968.9111
 30
0.0
 40
35.66601
 50
136.0707
 51
299.6077
  0
ARC
  8
0
 10
4729.792
 20
898.1409
 30
0.0
 40
55.57191
 50
5.826458
 51
134.3199
  0
ARC
  8
0
 10
4677.341
 20
885.0513
 30
0.0
 40
109.3511
 50
262.8972
 51
9.862267
  0
ARC
  8
0
 10
4638.362
 20
745.491
 30
0.0
 40
40.15002
 50
50.6496
 51
238.4132
  0
ARC
  8
0
 10
4605.071
 20
682.6616
 30
0.0
 40
31.14207
 50
304.8373
 51
66.82515
  0
ARC
  8
0
 10
4659.841
 20
606.0613
 30
0.0
 40
63.02847
 50
125.9199
 51
27.31693
  0
ARC
  8
0
 10
4780.11
 20
653.2317
 30
0.0
 40
66.81064
 50
104.4537
 51
195.8503
  0
ARC
  8
0
 10
4693.479
 20
824.9916
 30
0.0
 40
127.8887
 50
303.1579
 51
11.568
  0
ARC
  8
0
 10
4863.85
 20
840.381
 30
0.0
 40
46.22994
 50
330.2857
 51
167.1743
  0
ARC
  8
0
 10
4912.858
 20
801.3613
 30
0.0
 40
18.37367
 50
118.8115
 51
311.5024
  0
ARC
  8
0
 10
4931.052
 20
728.201
 30
0.0
 40
59.70637
 50
337.7865
 51
95.7867
  0
ARC
  8
0
 10
4947.98
 20
714.0714
 30
0.0
 40
39.26357
 50
210.4886
 51
347.5873
  0
ARC
  8
0
 10
4882.38
 20
677.5419
 30
0.0
 40
35.84258
 50
27.60582
 51
243.7847
  0
ARC
  8
0
 10
4826.169
 20
609.5513
 30
0.0
 40
53.98146
 50
233.5314
 51
41.57861
  0
ARC
  8
0
 10
4773.201
 20
511.7915
 30
0.0
 40
58.23278
 50
68.97844
 51
212.9921
  0
ARC
  8
0
 10
4700.11
 20
468.1319
 30
0.0
 40
27.02745
 50
235.243
 51
26.2363
  0
ARC
  8
0
 10
4683.391
 20
398.7522
 30
0.0
 40
47.19305
 50
88.41038
 51
241.9655
  0
ARC
  8
0
 10
4506.722
 20
234.4922
 30
0.0
 40
197.2301
 50
352.4409
 51
38.43491
  0
CIRCLE
  8
0
 10
1000
 20
7000
 30
0.0
 40
100
  0
CIRCLE
  8
0
 10
3000
 20
8000
 30
0.0
 40
100
  0
CIRCLE
  8
0
 10
5000
 20
7000
 30
0.0
 40
100
  0
CIRCLE
  8
0
 10
100
 20
100
 30
0.0
 40
125
  0
CIRCLE
  8
0
 10
200
 20
200
 30
0.0
 40
200
  0
CIRCLE
  8
0
 10
300
 20
300
 30
0.0
 40
200
  0
CIRCLE
  8
0
 10
350
 20
350
 30
0.0
 40
200
  0
CIRCLE
  8
0
 10
360
 20
360
 30
0.0
 40
200
  0
CIRCLE
  8
0
 10
370
 20
370
 30
0.0
 40
200
  0
ENDSEC
  0
EOF
