  0
SECTION
  2
ENTITIES
  0
ARC
  8
0
 10
4813.443
 20
1573.629
 30
0.0
 40
162.8143
 50
6.111573
 51
75.09105
  0
ARC
  8
0
 10
4973.623
 20
1662.727
 30
0.0
 40
71.7879
 50
271.3694
 51
2.580548
  0
ARC
  8
0
 10
4908.511
 20
1640.868
 30
0.0
 40
138.0789
 50
289.8192
 51
7.756135
  0
ARC
  8
0
 10
4908.193
 20
1449.899
 30
0.0
 40
77.14415
 50
.046722
 51
52.3295
  0
ARC
  8
0
 10
4998.95
 20
1373.68
 30
0.0
 40
77.4883
 50
356.9883
 51
100.122
  0
ARC
  8
0
 10
5145.829
 20
1274.24
 30
0.0
 40
118.0029
 50
39.91837
 51
126.0812
  0
ARC
  8
0
 10
5155.599
 20
1441.8
 30
0.0
 40
122.2782
 50
224.6761
 51
311.3169
  0
ARC
  8
0
 10
5179.007
 20
1345.21
 30
0.0
 40
110.8722
 50
174.5034
 51
251.6676
  0
ARC
  8
0
 10
5170.228
 20
1268.44
 30
0.0
 40
38.62512
 50
227.4969
 51
312.5031
  0
ARC
  8
0
 10
5157.65
 20
1242.111
 30
0.0
 40
38.74523
 50
257.743
 51
356.8298
  0
ARC
  8
0
 10
5191.468
 20
1164.92
 30
0.0
 40
57.57297
 50
136.9198
 51
253.58
  0
ARC
  8
0
 10
5274.25
 20
1172.341
 30
0.0
 40
117.1992
 50
169.1227
 51
212.3078
  0
ARC
  8
0
 10
5136.307
 20
1120.841
 30
0.0
 40
77.07932
 50
329.3839
 51
72.75732
  0
ARC
  8
0
 10
5195.179
 20
1159.011
 30
0.0
 40
77.78747
 50
160.8954
 51
275.5049
  0
ARC
  8
0
 10
5078.93
 20
1193.021
 30
0.0
 40
43.59041
 50
266.576
 51
348.6927
  0
ARC
  8
0
 10
5000.712
 20
1211.84
 30
0.0
 40
98.00314
 50
320.5013
 51
61.4029
  0
ARC
  8
0
 10
5024.379
 20
1264.69
 30
0.0
 40
40.52132
 50
55.00701
 51
222.9712
  0
ARC
  8
0
 10
4899.531
 20
1236.36
 30
0.0
 40
95.20499
 50
242.3411
 51
.425581
  0
ARC
  8
0
 10
4829.81
 20
1188.361
 30
0.0
 40
44.39408
 50
155.8864
 51
305.0951
  0
ARC
  8
0
 10
4776.099
 20
1327.24
 30
0.0
 40
121.4592
 50
276.2323
 51
358.0798
  0
ARC
  8
0
 10
4875.659
 20
1373.73
 30
0.0
 40
55.07262
 50
293.3563
 51
59.05561
  0
ARC
  8
0
 10
4845.249
 20
1407.149
 30
0.0
 40
60.33098
 50
13.23643
 51
147.5294
  0
ARC
  8
0
 10
4852.09
 20
1469.599
 30
0.0
 40
65.09921
 50
207.4983
 51
277.1414
  0
ARC
  8
0
 10
4856.401
 20
1368.339
 30
0.0
 40
36.85826
 50
213.6467
 51
84.09279
  0
ARC
  8
0
 10
4776.382
 20
1332.259
 30
0.0
 40
51.75502
 50
148.6167
 51
17.60951
  0
ARC
  8
0
 10
4724.171
 20
1417.659
 30
0.0
 40
58.99307
 50
97.56717
 51
277.8214
  0
ARC
  8
0
 10
4802.281
 20
1468.769
 30
0.0
 40
86.19418
 50
23.49137
 51
175.0955
  0
ARC
  8
0
 10
4907.832
 20
1510.319
 30
0.0
 40
27.46166
 50
195.1935
 51
71.37089
  0
ARC
  8
0
 10
4837.51
 20
1556.108
 30
0.0
 40
81.52616
 50
345.969
 51
136.3034
  0
ARC
  8
0
 10
4684.981
 20
1514.679
 30
0.0
 40
135.3248
 50
46.24949
 51
208.5697
  0
ARC
  8
0
 10
4603.205
 20
1323.66
 30
0.0
 40
131.6297
 50
106.3525
 51
168.2386
  0
ARC
  8
0
 10
4615.412
 20
1336.059
 30
0.0
 40
141.7597
 50
174.3728
 51
276.9499
  0
ARC
  8
0
 10
4738.053
 20
1161.64
 30
0.0
 40
110.7348
 50
162.2795
 51
330.5276
  0
ARC
  8
0
 10
4852.319
 20
1039.181
 30
0.0
 40
70.28387
 50
272.453
 51
104.733
  0
CIRCLE
  8
0
 10
1000
 20
7000
 30
0.0
 40
100
  0
CIRCLE
  8
0
 10
2500
 20
7000
 30
0.0
 40
100
  0
CIRCLE
  8
0
 10
100
 20
100
 30
0.0
 40
125
  0
CIRCLE
  8
0
 10
200
 20
200
 30
0.0
 40
200
  0
CIRCLE
  8
0
 10
300
 20
300
 30
0.0
 40
200
  0
CIRCLE
  8
0
 10
350
 20
350
 30
0.0
 40
200
  0
CIRCLE
  8
0
 10
360
 20
360
 30
0.0
 40
200
  0
CIRCLE
  8
0
 10
370
 20
370
 30
0.0
 40
200
  0
ENDSEC
  0
EOF
