  0
SECTION
  2
ENTITIES
  0
LINE
  8
0
 10
5157.766
 20
1954.778
 30
0.0
 11
5157.766
 21
1846.778
 31
0.0
  0
LINE
  8
0
 10
5157.766
 20
1846.778
 30
0.0
 11
5146.151
 21
1846.778
 31
0.0
  0
ARC
  8
0
 10
4649.766
 20
1954.778
 30
0.0
 40
507.9996
 50
343.8463
 51
347.7253
  0
LINE
  8
0
 10
5137.714
 20
1813.443
 30
0.0
 11
5177.818
 21
1813.443
 31
0.0
  0
ARC
  8
0
 10
5665.769
 20
1954.778
 30
0.0
 40
507.9996
 50
196.1537
 51
200.1105
  0
LINE
  8
0
 10
5188.737
 20
1780.113
 30
0.0
 11
5126.79
 21
1780.113
 31
0.0
  0
ARC
  8
0
 10
4649.766
 20
1954.778
 30
0.0
 40
507.9996
 50
335.8298
 51
339.8895
  0
LINE
  8
0
 10
5113.227
 20
1746.778
 30
0.0
 11
5202.298
 21
1746.778
 31
0.0
  0
ARC
  8
0
 10
5665.769
 20
1954.778
 30
0.0
 40
507.9996
 50
204.1702
 51
208.3636
  0
LINE
  8
0
 10
5218.749
 20
1713.443
 30
0.0
 11
5096.775
 21
1713.443
 31
0.0
  0
ARC
  8
0
 10
4649.766
 20
1954.778
 30
0.0
 40
507.9996
 50
327.2699
 51
331.6364
  0
LINE
  8
0
 10
5077.107
 20
1680.113
 30
0.0
 11
5238.417
 21
1680.113
 31
0.0
  0
ARC
  8
0
 10
5665.769
 20
1954.778
 30
0.0
 40
507.9996
 50
212.7301
 51
217.3224
  0
LINE
  8
0
 10
5261.775
 20
1646.778
 30
0.0
 11
5053.737
 21
1646.778
 31
0.0
  0
ARC
  8
0
 10
4649.766
 20
1954.778
 30
0.0
 40
507.9996
 50
317.7849
 51
322.6776
  0
LINE
  8
0
 10
5026.002
 20
1613.443
 30
0.0
 11
5289.523
 21
1613.443
 31
0.0
  0
ARC
  8
0
 10
5665.769
 20
1954.778
 30
0.0
 40
507.9996
 50
222.2151
 51
227.5217
  0
LINE
  8
0
 10
5322.714
 20
1580.113
 30
0.0
 11
4992.831
 21
1580.113
 31
0.0
  0
ARC
  8
0
 10
4649.766
 20
1954.778
 30
0.0
 40
507.9996
 50
306.5681
 51
312.4784
  0
LINE
  8
0
 10
4952.419
 20
1546.778
 30
0.0
 11
5363.111
 21
1546.778
 31
0.0
  0
ARC
  8
0
 10
5665.769
 20
1954.778
 30
0.0
 40
507.9996
 50
233.4319
 51
240.3156
  0
LINE
  8
0
 10
5414.191
 20
1513.446
 30
0.0
 11
4901.339
 21
1513.446
 31
0.0
  0
ARC
  8
0
 10
4649.766
 20
1954.778
 30
0.0
 40
507.9996
 50
290.8713
 51
299.6844
  0
LINE
  8
0
 10
4830.752
 20
1480.113
 30
0.0
 11
5484.778
 21
1480.113
 31
0.0
  0
ARC
  8
0
 10
5665.769
 20
1954.778
 30
0.0
 40
507.9996
 50
249.1287
 51
270
  0
LINE
  8
0
 10
5665.769
 20
1446.781
 30
0.0
 11
4649.766
 21
1446.781
 31
0.0
  0
ARC
  8
0
 10
4649.766
 20
938.778
 30
0.0
 40
507.9996
 50
69.12872
 51
89.99999
  0
LINE
  8
0
 10
4830.752
 20
1413.446
 30
0.0
 11
5484.778
 21
1413.446
 31
0.0
  0
ARC
  8
0
 10
5665.769
 20
938.778
 30
0.0
 40
507.9996
 50
110.8713
 51
119.6844
  0
LINE
  8
0
 10
5414.191
 20
1380.113
 30
0.0
 11
4901.339
 21
1380.113
 31
0.0
  0
ARC
  8
0
 10
4649.766
 20
938.778
 30
0.0
 40
507.9996
 50
53.43193
 51
60.3156
  0
LINE
  8
0
 10
4952.419
 20
1346.781
 30
0.0
 11
5363.111
 21
1346.781
 31
0.0
  0
ARC
  8
0
 10
5665.769
 20
938.778
 30
0.0
 40
507.9996
 50
126.5681
 51
132.4783
  0
LINE
  8
0
 10
5322.714
 20
1313.446
 30
0.0
 11
4992.831
 21
1313.446
 31
0.0
  0
ARC
  8
0
 10
4649.766
 20
938.778
 30
0.0
 40
507.9996
 50
42.21511
 51
47.52167
  0
LINE
  8
0
 10
5026.002
 20
1280.113
 30
0.0
 11
5289.523
 21
1280.113
 31
0.0
  0
ARC
  8
0
 10
5665.769
 20
938.778
 30
0.0
 40
507.9996
 50
137.7849
 51
142.6776
  0
LINE
  8
0
 10
5261.775
 20
1246.781
 30
0.0
 11
5053.737
 21
1246.781
 31
0.0
  0
ARC
  8
0
 10
4649.766
 20
938.778
 30
0.0
 40
507.9996
 50
32.73011
 51
37.32239
  0
LINE
  8
0
 10
5077.107
 20
1213.446
 30
0.0
 11
5238.417
 21
1213.446
 31
0.0
  0
ARC
  8
0
 10
5665.769
 20
938.778
 30
0.0
 40
507.9996
 50
147.2699
 51
151.6364
  0
LINE
  8
0
 10
5218.749
 20
1180.113
 30
0.0
 11
5096.775
 21
1180.113
 31
0.0
  0
ARC
  8
0
 10
4649.766
 20
938.778
 30
0.0
 40
507.9996
 50
24.17021
 51
28.36362
  0
LINE
  8
0
 10
5113.227
 20
1146.779
 30
0.0
 11
5202.298
 21
1146.779
 31
0.0
  0
ARC
  8
0
 10
5665.769
 20
938.778
 30
0.0
 40
507.9996
 50
155.8298
 51
159.8895
  0
LINE
  8
0
 10
5188.737
 20
1113.446
 30
0.0
 11
5126.79
 21
1113.446
 31
0.0
  0
ARC
  8
0
 10
4649.766
 20
938.778
 30
0.0
 40
507.9996
 50
16.15371
 51
20.11051
  0
LINE
  8
0
 10
5137.714
 20
1080.113
 30
0.0
 11
5177.818
 21
1080.113
 31
0.0
  0
ARC
  8
0
 10
5665.769
 20
938.778
 30
0.0
 40
507.9996
 50
163.8463
 51
167.7253
  0
LINE
  8
0
 10
5169.381
 20
1046.779
 30
0.0
 11
5157.766
 21
1046.779
 31
0.0
  0
LINE
  8
0
 10
5157.766
 20
1046.779
 30
0.0
 11
5157.766
 21
938.778
 31
0.0
  0
CIRCLE
  8
0
 10
1000
 20
7000
 30
0.0
 40
100
  0
CIRCLE
  8
0
 10
3000
 20
7000
 30
0.0
 40
100
  0
CIRCLE
  8
0
 10
100
 20
100
 30
0.0
 40
125
  0
CIRCLE
  8
0
 10
200
 20
200
 30
0.0
 40
200
  0
CIRCLE
  8
0
 10
300
 20
300
 30
0.0
 40
200
  0
CIRCLE
  8
0
 10
350
 20
350
 30
0.0
 40
200
  0
CIRCLE
  8
0
 10
360
 20
360
 30
0.0
 40
200
  0
CIRCLE
  8
0
 10
370
 20
370
 30
0.0
 40
200
  0
ENDSEC
  0
EOF
