  0
SECTION
  2
ENTITIES
  0
LINE
  8
0
 10
4510.163
 20
1902.461
 30
0.0
 11
5132.15
 21
1280.46
 31
0.0
  0
LINE
  8
0
 10
5132.15
 20
1280.46
 30
0.0
 11
5412.15
 21
1280.46
 31
0.0
  0
LINE
  8
0
 10
5412.15
 20
1280.46
 30
0.0
 11
5392.15
 21
1260.46
 31
0.0
  0
LINE
  8
0
 10
5392.15
 20
1260.46
 30
0.0
 11
5152.15
 21
1260.46
 31
0.0
  0
LINE
  8
0
 10
5152.15
 20
1260.46
 30
0.0
 11
5172.15
 21
1240.46
 31
0.0
  0
LINE
  8
0
 10
5172.15
 20
1240.46
 30
0.0
 11
5372.15
 21
1240.46
 31
0.0
  0
LINE
  8
0
 10
5372.15
 20
1240.46
 30
0.0
 11
5352.15
 21
1220.46
 31
0.0
  0
LINE
  8
0
 10
5352.15
 20
1220.46
 30
0.0
 11
5192.15
 21
1220.46
 31
0.0
  0
LINE
  8
0
 10
5192.15
 20
1220.46
 30
0.0
 11
5212.15
 21
1200.46
 31
0.0
  0
LINE
  8
0
 10
5212.15
 20
1200.46
 30
0.0
 11
5332.15
 21
1200.46
 31
0.0
  0
LINE
  8
0
 10
5332.15
 20
1200.46
 30
0.0
 11
5312.15
 21
1180.46
 31
0.0
  0
LINE
  8
0
 10
5312.15
 20
1180.46
 30
0.0
 11
5232.15
 21
1180.46
 31
0.0
  0
LINE
  8
0
 10
5232.15
 20
1180.46
 30
0.0
 11
5252.15
 21
1160.46
 31
0.0
  0
LINE
  8
0
 10
5252.15
 20
1160.46
 30
0.0
 11
5292.15
 21
1160.46
 31
0.0
  0
LINE
  8
0
 10
5292.15
 20
1160.46
 30
0.0
 11
5272.15
 21
1140.46
 31
0.0
  0
LINE
  8
0
 10
5272.15
 20
1140.46
 30
0.0
 11
5031.149
 21
899.4604
 31
0.0
  0
LINE
  8
0
 10
5031.149
 20
899.4604
 30
0.0
 11
4751.149
 21
899.4604
 31
0.0
  0
LINE
  8
0
 10
4751.149
 20
899.4604
 30
0.0
 11
4771.149
 21
879.4604
 31
0.0
  0
LINE
  8
0
 10
4771.149
 20
879.4604
 30
0.0
 11
5011.149
 21
879.4604
 31
0.0
  0
LINE
  8
0
 10
5011.149
 20
879.4604
 30
0.0
 11
4991.149
 21
859.4604
 31
0.0
  0
LINE
  8
0
 10
4991.149
 20
859.4604
 30
0.0
 11
4791.149
 21
859.4604
 31
0.0
  0
LINE
  8
0
 10
4791.149
 20
859.4604
 30
0.0
 11
4811.149
 21
839.4604
 31
0.0
  0
LINE
  8
0
 10
4811.149
 20
839.4604
 30
0.0
 11
4971.149
 21
839.4604
 31
0.0
  0
LINE
  8
0
 10
4971.149
 20
839.4604
 30
0.0
 11
4951.149
 21
819.4604
 31
0.0
  0
LINE
  8
0
 10
4951.149
 20
819.4604
 30
0.0
 11
4831.149
 21
819.4604
 31
0.0
  0
LINE
  8
0
 10
4831.149
 20
819.4604
 30
0.0
 11
4851.149
 21
799.4604
 31
0.0
  0
LINE
  8
0
 10
4851.149
 20
799.4604
 30
0.0
 11
4931.149
 21
799.4604
 31
0.0
  0
LINE
  8
0
 10
4931.149
 20
799.4604
 30
0.0
 11
4911.149
 21
779.4604
 31
0.0
  0
LINE
  8
0
 10
4911.149
 20
779.4604
 30
0.0
 11
4871.149
 21
779.4604
 31
0.0
  0
LINE
  8
0
 10
4871.149
 20
779.4604
 30
0.0
 11
4891.149
 21
759.4604
 31
0.0
  0
LINE
  8
0
 10
4891.149
 20
759.4604
 30
0.0
 11
4510.163
 21
378.4609
 31
0.0
  0
CIRCLE
  8
0
 10
1000
 20
7000
 30
0.0
 40
100
  0
CIRCLE
  8
0
 10
1000
 20
8000
 30
0.0
 40
100
  0
CIRCLE
  8
0
 10
2500
 20
7000
 30
0.0
 40
100
  0
CIRCLE
  8
0
 10
2500
 20
8000
 30
0.0
 40
100
  0
CIRCLE
  8
0
 10
100
 20
100
 30
0.0
 40
125
  0
CIRCLE
  8
0
 10
200
 20
200
 30
0.0
 40
200
  0
CIRCLE
  8
0
 10
300
 20
300
 30
0.0
 40
200
  0
CIRCLE
  8
0
 10
350
 20
350
 30
0.0
 40
200
  0
CIRCLE
  8
0
 10
360
 20
360
 30
0.0
 40
200
  0
CIRCLE
  8
0
 10
370
 20
370
 30
0.0
 40
200
  0
ENDSEC
  0
EOF
