  0
SECTION
  2
ENTITIES
  0
ARC
  8
0
 10
5150.312
 20
2677.705
 30
0.0
 40
44.89503
 50
176.288
 51
305.5329
  0
ARC
  8
0
 10
5162.958
 20
2655.324
 30
0.0
 40
19.52111
 50
313.5054
 51
179.5566
  0
ARC
  8
0
 10
5162.958
 20
2655.324
 30
0.0
 40
19.52111
 50
313.5054
 51
179.5566
  0
ARC
  8
0
 10
5150.312
 20
2677.705
 30
0.0
 40
44.89503
 50
176.288
 51
305.5329
  0
ARC
  8
0
 10
5198.739
 20
2678.604
 30
0.0
 40
93.25999
 50
178.7718
 51
270.5949
  0
ARC
  8
0
 10
5200.248
 20
2624.555
 30
0.0
 40
39.20643
 50
269.2049
 51
345.7178
  0
ARC
  8
0
 10
5211.81
 20
2619.064
 30
0.0
 40
26.76665
 50
351.0119
 51
199.37
  0
ARC
  8
0
 10
5211.81
 20
2619.064
 30
0.0
 40
26.76665
 50
351.0119
 51
199.37
  0
ARC
  8
0
 10
5200.248
 20
2624.555
 30
0.0
 40
39.20643
 50
269.2049
 51
345.7178
  0
ARC
  8
0
 10
5199.168
 20
2546.144
 30
0.0
 40
39.20643
 50
89.20483
 51
165.7178
  0
ARC
  8
0
 10
5187.611
 20
2551.634
 30
0.0
 40
26.76665
 50
171.0119
 51
19.37
  0
ARC
  8
0
 10
5187.611
 20
2551.634
 30
0.0
 40
26.76665
 50
171.0119
 51
19.37
  0
ARC
  8
0
 10
5199.168
 20
2546.144
 30
0.0
 40
39.20643
 50
89.20483
 51
165.7178
  0
ARC
  8
0
 10
5200.677
 20
2492.105
 30
0.0
 40
93.24767
 50
358.773
 51
90.5981
  0
ARC
  8
0
 10
5249.121
 20
2493.005
 30
0.0
 40
44.88793
 50
356.2954
 51
125.5386
  0
ARC
  8
0
 10
5236.458
 20
2515.374
 30
0.0
 40
19.52111
 50
133.5054
 51
359.5566
  0
ARC
  8
0
 10
5236.458
 20
2515.374
 30
0.0
 40
19.52111
 50
133.5054
 51
359.5566
  0
ARC
  8
0
 10
5249.121
 20
2493.005
 30
0.0
 40
44.88793
 50
356.2954
 51
125.5386
  0
ARC
  8
0
 10
5338.71
 20
2487.194
 30
0.0
 40
44.89503
 50
176.288
 51
305.5329
  0
ARC
  8
0
 10
5351.371
 20
2464.824
 30
0.0
 40
19.52111
 50
313.5054
 51
179.5566
  0
ARC
  8
0
 10
5351.371
 20
2464.824
 30
0.0
 40
19.52111
 50
313.5054
 51
179.5566
  0
ARC
  8
0
 10
5338.71
 20
2487.194
 30
0.0
 40
44.89503
 50
176.288
 51
305.5329
  0
ARC
  8
0
 10
5387.152
 20
2488.105
 30
0.0
 40
93.25999
 50
178.7718
 51
270.5949
  0
ARC
  8
0
 10
5388.662
 20
2434.054
 30
0.0
 40
39.20643
 50
269.2049
 51
345.7178
  0
ARC
  8
0
 10
5400.219
 20
2428.564
 30
0.0
 40
26.76665
 50
351.0119
 51
199.37
  0
ARC
  8
0
 10
5400.219
 20
2428.564
 30
0.0
 40
26.76665
 50
351.0119
 51
199.37
  0
ARC
  8
0
 10
5388.662
 20
2434.054
 30
0.0
 40
39.20643
 50
269.2049
 51
345.7178
  0
ARC
  8
0
 10
5387.572
 20
2355.643
 30
0.0
 40
39.20643
 50
89.20483
 51
165.7178
  0
ARC
  8
0
 10
5376.01
 20
2361.134
 30
0.0
 40
26.76665
 50
171.0119
 51
19.37
  0
ARC
  8
0
 10
5376.01
 20
2361.134
 30
0.0
 40
26.76665
 50
171.0119
 51
19.37
  0
ARC
  8
0
 10
5387.572
 20
2355.643
 30
0.0
 40
39.20643
 50
89.20483
 51
165.7178
  0
ARC
  8
0
 10
5389.091
 20
2301.603
 30
0.0
 40
93.24767
 50
358.773
 51
90.5981
  0
ARC
  8
0
 10
5437.52
 20
2302.503
 30
0.0
 40
44.88793
 50
356.2954
 51
125.5386
  0
ARC
  8
0
 10
5424.873
 20
2324.874
 30
0.0
 40
19.52111
 50
133.5054
 51
359.5566
  0
ARC
  8
0
 10
5424.873
 20
2324.874
 30
0.0
 40
19.52111
 50
133.5054
 51
359.5566
  0
ARC
  8
0
 10
5437.52
 20
2302.503
 30
0.0
 40
44.88793
 50
356.2954
 51
125.5386
  0
ARC
  8
0
 10
5527.12
 20
2296.703
 30
0.0
 40
44.89503
 50
176.288
 51
305.5329
  0
ARC
  8
0
 10
5539.771
 20
2274.323
 30
0.0
 40
19.52111
 50
313.5054
 51
179.5566
  0
ARC
  8
0
 10
5539.771
 20
2274.323
 30
0.0
 40
19.52111
 50
313.5054
 51
179.5566
  0
ARC
  8
0
 10
5527.12
 20
2296.703
 30
0.0
 40
44.89503
 50
176.288
 51
305.5329
  0
ARC
  8
0
 10
5575.562
 20
2297.603
 30
0.0
 40
93.25999
 50
178.7718
 51
270.5949
  0
ARC
  8
0
 10
5577.071
 20
2243.553
 30
0.0
 40
39.20643
 50
269.2049
 51
345.7178
  0
ARC
  8
0
 10
5588.624
 20
2238.063
 30
0.0
 40
26.76665
 50
351.0119
 51
199.37
  0
ARC
  8
0
 10
5588.624
 20
2238.063
 30
0.0
 40
26.76665
 50
351.0119
 51
199.37
  0
ARC
  8
0
 10
5577.071
 20
2243.553
 30
0.0
 40
39.20643
 50
269.2049
 51
345.7178
  0
ARC
  8
0
 10
5575.981
 20
2165.144
 30
0.0
 40
39.20643
 50
89.20483
 51
165.7178
  0
ARC
  8
0
 10
5564.419
 20
2170.633
 30
0.0
 40
26.76665
 50
171.0119
 51
19.37
  0
ARC
  8
0
 10
5564.419
 20
2170.633
 30
0.0
 40
26.76665
 50
171.0119
 51
19.37
  0
ARC
  8
0
 10
5575.981
 20
2165.144
 30
0.0
 40
39.20643
 50
89.20483
 51
165.7178
  0
ARC
  8
0
 10
5577.491
 20
2111.102
 30
0.0
 40
93.24767
 50
358.773
 51
90.5981
  0
ARC
  8
0
 10
5625.933
 20
2112.003
 30
0.0
 40
44.88793
 50
356.2954
 51
125.5386
  0
ARC
  8
0
 10
5613.281
 20
2134.372
 30
0.0
 40
19.52111
 50
133.5054
 51
359.5566
  0
ARC
  8
0
 10
5613.281
 20
2134.372
 30
0.0
 40
19.52111
 50
133.5054
 51
359.5566
  0
ARC
  8
0
 10
5625.933
 20
2112.003
 30
0.0
 40
44.88793
 50
356.2954
 51
125.5386
  0
ARC
  8
0
 10
5715.523
 20
2106.193
 30
0.0
 40
44.89503
 50
176.288
 51
305.5329
  0
ARC
  8
0
 10
5728.18
 20
2083.823
 30
0.0
 40
19.52111
 50
313.5054
 51
179.5566
  0
ARC
  8
0
 10
5728.18
 20
2083.823
 30
0.0
 40
19.52111
 50
313.5054
 51
179.5566
  0
ARC
  8
0
 10
5715.523
 20
2106.193
 30
0.0
 40
44.89503
 50
176.288
 51
305.5329
  0
ARC
  8
0
 10
5763.961
 20
2107.103
 30
0.0
 40
93.25999
 50
178.7718
 51
270.5949
  0
ARC
  8
0
 10
5765.469
 20
2053.053
 30
0.0
 40
39.20643
 50
269.2049
 51
345.7178
  0
ARC
  8
0
 10
5777.032
 20
2047.563
 30
0.0
 40
26.76665
 50
351.0119
 51
199.37
  0
ARC
  8
0
 10
5777.032
 20
2047.563
 30
0.0
 40
26.76665
 50
351.0119
 51
199.37
  0
ARC
  8
0
 10
5765.469
 20
2053.053
 30
0.0
 40
39.20643
 50
269.2049
 51
345.7178
  0
ARC
  8
0
 10
5764.38
 20
1974.642
 30
0.0
 40
39.20643
 50
89.20483
 51
165.7178
  0
ARC
  8
0
 10
5752.833
 20
1980.133
 30
0.0
 40
26.76665
 50
171.0119
 51
19.37
  0
ARC
  8
0
 10
5752.833
 20
1980.133
 30
0.0
 40
26.76665
 50
171.0119
 51
19.37
  0
ARC
  8
0
 10
5764.38
 20
1974.642
 30
0.0
 40
39.20643
 50
89.20483
 51
165.7178
  0
ARC
  8
0
 10
5765.904
 20
1920.603
 30
0.0
 40
93.24767
 50
358.773
 51
90.5981
  0
ARC
  8
0
 10
5814.333
 20
1921.502
 30
0.0
 40
44.88793
 50
356.2954
 51
125.5386
  0
ARC
  8
0
 10
5801.68
 20
1943.873
 30
0.0
 40
19.52111
 50
133.5054
 51
359.5566
  0
ARC
  8
0
 10
5801.68
 20
1943.873
 30
0.0
 40
19.52111
 50
133.5054
 51
359.5566
  0
ARC
  8
0
 10
5814.333
 20
1921.502
 30
0.0
 40
44.88793
 50
356.2954
 51
125.5386
  0
ARC
  8
0
 10
5814.333
 20
1915.703
 30
0.0
 40
44.88793
 50
234.4614
 51
3.704554
  0
ARC
  8
0
 10
5801.68
 20
1893.332
 30
0.0
 40
19.52111
 50
0.443406
 51
226.4946
  0
ARC
  8
0
 10
5801.68
 20
1893.332
 30
0.0
 40
19.52111
 50
0.443406
 51
226.4946
  0
ARC
  8
0
 10
5814.333
 20
1915.703
 30
0.0
 40
44.88793
 50
234.4614
 51
3.704554
  0
ARC
  8
0
 10
5765.904
 20
1916.603
 30
0.0
 40
93.24767
 50
269.4019
 51
1.226936
  0
ARC
  8
0
 10
5764.38
 20
1862.573
 30
0.0
 40
39.20643
 50
194.2822
 51
270.7951
  0
ARC
  8
0
 10
5752.833
 20
1857.072
 30
0.0
 40
26.76665
 50
340.63
 51
188.9881
  0
ARC
  8
0
 10
5752.833
 20
1857.072
 30
0.0
 40
26.76665
 50
340.63
 51
188.9881
  0
ARC
  8
0
 10
5764.38
 20
1862.573
 30
0.0
 40
39.20643
 50
194.2822
 51
270.7951
  0
ARC
  8
0
 10
5765.469
 20
1784.152
 30
0.0
 40
39.20643
 50
14.28215
 51
90.79514
  0
ARC
  8
0
 10
5777.032
 20
1789.641
 30
0.0
 40
26.76665
 50
160.63
 51
8.988098
  0
ARC
  8
0
 10
5777.032
 20
1789.641
 30
0.0
 40
26.76665
 50
160.63
 51
8.988098
  0
ARC
  8
0
 10
5765.469
 20
1784.152
 30
0.0
 40
39.20643
 50
14.28215
 51
90.79514
  0
ARC
  8
0
 10
5763.961
 20
1730.102
 30
0.0
 40
93.25999
 50
89.40509
 51
181.2282
  0
ARC
  8
0
 10
5715.523
 20
1731.013
 30
0.0
 40
44.89503
 50
54.46709
 51
183.712
  0
ARC
  8
0
 10
5728.18
 20
1753.382
 30
0.0
 40
19.52111
 50
180.4434
 51
46.49461
  0
ARC
  8
0
 10
5728.18
 20
1753.382
 30
0.0
 40
19.52111
 50
180.4434
 51
46.49461
  0
ARC
  8
0
 10
5715.523
 20
1731.013
 30
0.0
 40
44.89503
 50
54.46709
 51
183.712
  0
ARC
  8
0
 10
5625.933
 20
1725.202
 30
0.0
 40
44.88793
 50
234.4614
 51
3.704554
  0
ARC
  8
0
 10
5613.281
 20
1702.832
 30
0.0
 40
19.52111
 50
0.443406
 51
226.4946
  0
ARC
  8
0
 10
5613.281
 20
1702.832
 30
0.0
 40
19.52111
 50
0.443406
 51
226.4946
  0
ARC
  8
0
 10
5625.933
 20
1725.202
 30
0.0
 40
44.88793
 50
234.4614
 51
3.704554
  0
ARC
  8
0
 10
5577.491
 20
1726.102
 30
0.0
 40
93.24767
 50
269.4019
 51
1.226936
  0
ARC
  8
0
 10
5575.981
 20
1672.071
 30
0.0
 40
39.20643
 50
194.2822
 51
270.7951
  0
ARC
  8
0
 10
5564.419
 20
1666.571
 30
0.0
 40
26.76665
 50
340.63
 51
188.9881
  0
ARC
  8
0
 10
5564.419
 20
1666.571
 30
0.0
 40
26.76665
 50
340.63
 51
188.9881
  0
ARC
  8
0
 10
5575.981
 20
1672.071
 30
0.0
 40
39.20643
 50
194.2822
 51
270.7951
  0
ARC
  8
0
 10
5577.071
 20
1593.651
 30
0.0
 40
39.20643
 50
14.28215
 51
90.79514
  0
ARC
  8
0
 10
5588.624
 20
1599.142
 30
0.0
 40
26.76665
 50
160.63
 51
8.988098
  0
ARC
  8
0
 10
5588.624
 20
1599.142
 30
0.0
 40
26.76665
 50
160.63
 51
8.988098
  0
ARC
  8
0
 10
5577.071
 20
1593.651
 30
0.0
 40
39.20643
 50
14.28215
 51
90.79514
  0
ARC
  8
0
 10
5575.562
 20
1539.601
 30
0.0
 40
93.25999
 50
89.40509
 51
181.2282
  0
ARC
  8
0
 10
5527.12
 20
1540.511
 30
0.0
 40
44.89503
 50
54.46709
 51
183.712
  0
ARC
  8
0
 10
5539.771
 20
1562.88
 30
0.0
 40
19.52111
 50
180.4434
 51
46.49461
  0
ARC
  8
0
 10
5539.771
 20
1562.88
 30
0.0
 40
19.52111
 50
180.4434
 51
46.49461
  0
ARC
  8
0
 10
5527.12
 20
1540.511
 30
0.0
 40
44.89503
 50
54.46709
 51
183.712
  0
ARC
  8
0
 10
5437.52
 20
1534.7
 30
0.0
 40
44.88793
 50
234.4614
 51
3.704554
  0
ARC
  8
0
 10
5424.873
 20
1512.331
 30
0.0
 40
19.52111
 50
0.443406
 51
226.4946
  0
ARC
  8
0
 10
5424.873
 20
1512.331
 30
0.0
 40
19.52111
 50
0.443406
 51
226.4946
  0
ARC
  8
0
 10
5437.52
 20
1534.7
 30
0.0
 40
44.88793
 50
234.4614
 51
3.704554
  0
ARC
  8
0
 10
5389.091
 20
1535.611
 30
0.0
 40
93.24767
 50
269.4019
 51
1.226936
  0
ARC
  8
0
 10
5387.572
 20
1481.561
 30
0.0
 40
39.20643
 50
194.2822
 51
270.7951
  0
ARC
  8
0
 10
5376.01
 20
1476.081
 30
0.0
 40
26.76665
 50
340.63
 51
188.9881
  0
ARC
  8
0
 10
5376.01
 20
1476.081
 30
0.0
 40
26.76665
 50
340.63
 51
188.9881
  0
ARC
  8
0
 10
5387.572
 20
1481.561
 30
0.0
 40
39.20643
 50
194.2822
 51
270.7951
  0
ARC
  8
0
 10
5388.662
 20
1403.151
 30
0.0
 40
39.20643
 50
14.28215
 51
90.79514
  0
ARC
  8
0
 10
5400.219
 20
1408.641
 30
0.0
 40
26.76665
 50
160.63
 51
8.988098
  0
ARC
  8
0
 10
5400.219
 20
1408.641
 30
0.0
 40
26.76665
 50
160.63
 51
8.988098
  0
ARC
  8
0
 10
5388.662
 20
1403.151
 30
0.0
 40
39.20643
 50
14.28215
 51
90.79514
  0
ARC
  8
0
 10
5387.152
 20
1349.1
 30
0.0
 40
93.25999
 50
89.40509
 51
181.2282
  0
ARC
  8
0
 10
5338.71
 20
1350.01
 30
0.0
 40
44.89503
 50
54.46709
 51
183.712
  0
ARC
  8
0
 10
5351.371
 20
1372.38
 30
0.0
 40
19.52111
 50
180.4434
 51
46.49461
  0
ARC
  8
0
 10
5351.371
 20
1372.38
 30
0.0
 40
19.52111
 50
180.4434
 51
46.49461
  0
ARC
  8
0
 10
5338.71
 20
1350.01
 30
0.0
 40
44.89503
 50
54.46709
 51
183.712
  0
ARC
  8
0
 10
5249.121
 20
1344.201
 30
0.0
 40
44.88793
 50
234.4614
 51
3.704554
  0
ARC
  8
0
 10
5236.458
 20
1321.83
 30
0.0
 40
19.52111
 50
0.443406
 51
226.4946
  0
ARC
  8
0
 10
5236.458
 20
1321.83
 30
0.0
 40
19.52111
 50
0.443406
 51
226.4946
  0
ARC
  8
0
 10
5249.121
 20
1344.201
 30
0.0
 40
44.88793
 50
234.4614
 51
3.704554
  0
ARC
  8
0
 10
5200.677
 20
1345.1
 30
0.0
 40
93.24767
 50
269.4019
 51
1.226936
  0
ARC
  8
0
 10
5199.168
 20
1291.071
 30
0.0
 40
39.20643
 50
194.2822
 51
270.7951
  0
ARC
  8
0
 10
5187.611
 20
1285.57
 30
0.0
 40
26.76665
 50
340.63
 51
188.9881
  0
ARC
  8
0
 10
5187.611
 20
1285.57
 30
0.0
 40
26.76665
 50
340.63
 51
188.9881
  0
ARC
  8
0
 10
5199.168
 20
1291.071
 30
0.0
 40
39.20643
 50
194.2822
 51
270.7951
  0
ARC
  8
0
 10
5200.248
 20
1212.65
 30
0.0
 40
39.20643
 50
14.28215
 51
90.79514
  0
ARC
  8
0
 10
5211.81
 20
1218.139
 30
0.0
 40
26.76665
 50
160.63
 51
8.988098
  0
ARC
  8
0
 10
5211.81
 20
1218.139
 30
0.0
 40
26.76665
 50
160.63
 51
8.988098
  0
ARC
  8
0
 10
5200.248
 20
1212.65
 30
0.0
 40
39.20643
 50
14.28215
 51
90.79514
  0
ARC
  8
0
 10
5198.739
 20
1158.6
 30
0.0
 40
93.25999
 50
89.40509
 51
181.2282
  0
ARC
  8
0
 10
5150.312
 20
1159.51
 30
0.0
 40
44.89503
 50
54.46709
 51
183.712
  0
ARC
  8
0
 10
5162.958
 20
1181.88
 30
0.0
 40
19.52111
 50
180.4434
 51
46.49461
  0
ARC
  8
0
 10
5162.958
 20
1181.88
 30
0.0
 40
19.52111
 50
180.4434
 51
46.49461
  0
ARC
  8
0
 10
5150.312
 20
1159.51
 30
0.0
 40
44.89503
 50
54.46709
 51
183.712
  0
CIRCLE
  8
0
 10
1000
 20
7000
 30
0.0
 40
100
  0
CIRCLE
  8
0
 10
1000
 20
8000
 30
0.0
 40
100
  0
CIRCLE
  8
0
 10
2500
 20
7000
 30
0.0
 40
100
  0
CIRCLE
  8
0
 10
2500
 20
8000
 30
0.0
 40
100
  0
CIRCLE
  8
0
 10
100
 20
100
 30
0.0
 40
125
  0
CIRCLE
  8
0
 10
200
 20
200
 30
0.0
 40
200
  0
CIRCLE
  8
0
 10
300
 20
300
 30
0.0
 40
200
  0
CIRCLE
  8
0
 10
350
 20
350
 30
0.0
 40
200
  0
CIRCLE
  8
0
 10
360
 20
360
 30
0.0
 40
200
  0
CIRCLE
  8
0
 10
370
 20
370
 30
0.0
 40
200
  0
ENDSEC
  0
EOF
