  0
SECTION
  2
ENTITIES
  0
ARC
  8
0
 10
3821.089
 20
1861.395
 30
0.0
 40
161.0645
 50
53.85536
 51
126.1447
  0
ARC
  8
0
 10
3631.587
 20
1610.46
 30
0.0
 40
475.5026
 50
306.7496
 51
53.25034
  0
ARC
  8
0
 10
3821.089
 20
1359.524
 30
0.0
 40
161.0645
 50
233.8554
 51
306.1446
  0
ARC
  8
0
 10
3631.089
 20
1099.395
 30
0.0
 40
161.0645
 50
53.85536
 51
126.1447
  0
ARC
  8
0
 10
3820.592
 20
848.4595
 30
0.0
 40
475.5026
 50
126.7496
 51
233.2503
  0
ARC
  8
0
 10
3631.089
 20
597.524
 30
0.0
 40
161.0645
 50
233.8554
 51
306.1446
  0
CIRCLE
  8
0
 10
1000
 20
7000
 30
0.0
 40
100
  0
CIRCLE
  8
0
 10
1000
 20
8000
 30
0.0
 40
100
  0
CIRCLE
  8
0
 10
2500
 20
7000
 30
0.0
 40
100
  0
CIRCLE
  8
0
 10
2500
 20
8000
 30
0.0
 40
100
  0
CIRCLE
  8
0
 10
4000
 20
7000
 30
0.0
 40
100
  0
CIRCLE
  8
0
 10
4000
 20
8000
 30
0.0
 40
100
  0
CIRCLE
  8
0
 10
100
 20
100
 30
0.0
 40
126
  0
CIRCLE
  8
0
 10
200
 20
200
 30
0.0
 40
200
  0
CIRCLE
  8
0
 10
300
 20
300
 30
0.0
 40
200
  0
CIRCLE
  8
0
 10
350
 20
350
 30
0.0
 40
200
  0
CIRCLE
  8
0
 10
360
 20
360
 30
0.0
 40
200
  0
CIRCLE
  8
0
 10
370
 20
370
 30
0.0
 40
200
  0
ENDSEC
  0
EOF
