  0
SECTION
  2
ENTITIES
  0
ARC
  8
0
 10
-1.229597
 20
45.27683
 30
0.0
 40
383.3501
 50
7.603425
 51
89.81602
  0
LINE
  8
0
 10
381
 20
95.25
 30
0.0
 11
428.625
 21
95.25
 31
0.0
  0
LINE
  8
0
 10
428.625
 20
95.25
 30
0.0
 11
476.25
 21
95.25
 31
0.0
  0
LINE
  8
0
 10
476.25
 20
95.25
 30
0.0
 11
476.25
 21
47.625
 31
0.0
  0
LINE
  8
0
 10
476.25
 20
47.625
 30
0.0
 11
476.25
 21
0
 31
0.0
  0
LINE
  8
0
 10
476.25
 20
0
 30
0.0
 11
428.625
 21
0
 31
0.0
  0
LINE
  8
0
 10
428.625
 20
0
 30
0.0
 11
381
 21
0
 31
0.0
  0
ARC
  8
0
 10
-1.229597
 20
49.97317
 30
0.0
 40
383.3501
 50
270.184
 51
352.3966
  0
ARC
  8
0
 10
1.22733
 20
-716.7232
 30
0.0
 40
383.3501
 50
90.18368
 51
172.3963
  0
LINE
  8
0
 10
-381.002
 20
-666.748
 30
0.0
 11
-428.627
 21
-666.7477
 31
0.0
  0
LINE
  8
0
 10
-428.627
 20
-666.7477
 30
0.0
 11
-476.252
 21
-666.7474
 31
0.0
  0
LINE
  8
0
 10
-476.252
 20
-666.7474
 30
0.0
 11
-476.2522
 21
-714.3724
 31
0.0
  0
LINE
  8
0
 10
-476.2522
 20
-714.3724
 30
0.0
 11
-476.2525
 21
-761.9974
 31
0.0
  0
LINE
  8
0
 10
-476.2525
 20
-761.9974
 30
0.0
 11
-428.6275
 21
-761.9977
 31
0.0
  0
LINE
  8
0
 10
-428.6275
 20
-761.9977
 30
0.0
 11
-381.0025
 21
-761.998
 31
0.0
  0
ARC
  8
0
 10
1.227355
 20
-712.0269
 30
0.0
 40
383.3501
 50
187.6034
 51
269.816
  0
CIRCLE
  8
0
 10
1000
 20
7000
 30
0.0
 40
100
  0
CIRCLE
  8
0
 10
1000
 20
8000
 30
0.0
 40
100
  0
CIRCLE
  8
0
 10
2500
 20
7000
 30
0.0
 40
100
  0
CIRCLE
  8
0
 10
2500
 20
8000
 30
0.0
 40
100
  0
CIRCLE
  8
0
 10
100
 20
100
 30
0.0
 40
125
  0
CIRCLE
  8
0
 10
200
 20
200
 30
0.0
 40
200
  0
CIRCLE
  8
0
 10
300
 20
300
 30
0.0
 40
200
  0
CIRCLE
  8
0
 10
350
 20
350
 30
0.0
 40
200
  0
CIRCLE
  8
0
 10
360
 20
360
 30
0.0
 40
200
  0
CIRCLE
  8
0
 10
370
 20
370
 30
0.0
 40
200
  0
ENDSEC
  0
EOF
