  0
SECTION
  2
ENTITIES
  0
LINE
  8
0
 10
4917.209
 20
1921.648
 30
0.0
 11
4917.209
 21
1744.148
 31
0.0
  0
LINE
  8
0
 10
4917.209
 20
1744.148
 30
0.0
 11
5057.209
 21
1879.148
 31
0.0
  0
LINE
  8
0
 10
5057.209
 20
1879.148
 30
0.0
 11
5197.209
 21
1879.148
 31
0.0
  0
LINE
  8
0
 10
5197.209
 20
1879.148
 30
0.0
 11
5197.209
 21
1604.148
 31
0.0
  0
LINE
  8
0
 10
5197.209
 20
1604.148
 30
0.0
 11
4792.209
 21
1739.148
 31
0.0
  0
LINE
  8
0
 10
4792.209
 20
1739.148
 30
0.0
 11
4792.209
 21
1879.148
 31
0.0
  0
LINE
  8
0
 10
4792.209
 20
1879.148
 30
0.0
 11
4522.209
 21
1879.148
 31
0.0
  0
LINE
  8
0
 10
4522.209
 20
1879.148
 30
0.0
 11
4522.209
 21
1609.148
 31
0.0
  0
LINE
  8
0
 10
4522.209
 20
1609.148
 30
0.0
 11
5197.209
 21
1472.149
 31
0.0
  0
LINE
  8
0
 10
5197.209
 20
1472.149
 30
0.0
 11
5197.209
 21
1202.149
 31
0.0
  0
LINE
  8
0
 10
5197.209
 20
1202.149
 30
0.0
 11
4917.209
 21
1202.149
 31
0.0
  0
LINE
  8
0
 10
4917.209
 20
1202.149
 30
0.0
 11
4917.209
 21
1342.149
 31
0.0
  0
LINE
  8
0
 10
4917.209
 20
1342.149
 30
0.0
 11
4522.209
 21
1477.149
 31
0.0
  0
LINE
  8
0
 10
4522.209
 20
1477.149
 30
0.0
 11
4522.209
 21
1202.149
 31
0.0
  0
LINE
  8
0
 10
4522.209
 20
1202.149
 30
0.0
 11
4662.209
 21
1202.149
 31
0.0
  0
LINE
  8
0
 10
4662.209
 20
1202.149
 30
0.0
 11
4662.209
 21
1337.149
 31
0.0
  0
LINE
  8
0
 10
4662.209
 20
1337.149
 30
0.0
 11
4802.209
 21
1202.149
 31
0.0
  0
LINE
  8
0
 10
4802.209
 20
1202.149
 30
0.0
 11
4802.209
 21
1117.149
 31
0.0
  0
LINE
  8
0
 10
4802.209
 20
1117.149
 30
0.0
 11
4662.209
 21
982.149
 31
0.0
  0
LINE
  8
0
 10
4662.209
 20
982.149
 30
0.0
 11
4662.209
 21
1117.149
 31
0.0
  0
LINE
  8
0
 10
4662.209
 20
1117.149
 30
0.0
 11
4522.209
 21
1117.149
 31
0.0
  0
LINE
  8
0
 10
4522.209
 20
1117.149
 30
0.0
 11
4522.209
 21
842.149
 31
0.0
  0
LINE
  8
0
 10
4522.209
 20
842.149
 30
0.0
 11
4917.209
 21
977.149
 31
0.0
  0
LINE
  8
0
 10
4917.209
 20
977.149
 30
0.0
 11
4917.209
 21
1117.149
 31
0.0
  0
LINE
  8
0
 10
4917.209
 20
1117.149
 30
0.0
 11
5197.209
 21
1117.149
 31
0.0
  0
LINE
  8
0
 10
5197.209
 20
1117.149
 30
0.0
 11
5197.209
 21
847.149
 31
0.0
  0
LINE
  8
0
 10
5197.209
 20
847.149
 30
0.0
 11
4522.209
 21
710.1482
 31
0.0
  0
LINE
  8
0
 10
4522.209
 20
710.1482
 30
0.0
 11
4522.209
 21
440.1481
 31
0.0
  0
LINE
  8
0
 10
4522.209
 20
440.1481
 30
0.0
 11
4792.209
 21
440.1481
 31
0.0
  0
LINE
  8
0
 10
4792.209
 20
440.1481
 30
0.0
 11
4792.209
 21
580.1481
 31
0.0
  0
LINE
  8
0
 10
4792.209
 20
580.1481
 30
0.0
 11
5197.209
 21
715.1482
 31
0.0
  0
LINE
  8
0
 10
5197.209
 20
715.1482
 30
0.0
 11
5197.209
 21
440.1481
 31
0.0
  0
LINE
  8
0
 10
5197.209
 20
440.1481
 30
0.0
 11
5057.209
 21
440.1481
 31
0.0
  0
LINE
  8
0
 10
5057.209
 20
440.1481
 30
0.0
 11
4917.209
 21
575.1481
 31
0.0
  0
LINE
  8
0
 10
4917.209
 20
575.1481
 30
0.0
 11
4917.209
 21
397.6482
 31
0.0
  0
CIRCLE
  8
0
 10
1000
 20
7000
 30
0.0
 40
100
  0
CIRCLE
  8
0
 10
2500
 20
7000
 30
0.0
 40
100
  0
CIRCLE
  8
0
 10
100
 20
100
 30
0.0
 40
125
  0
CIRCLE
  8
0
 10
200
 20
200
 30
0.0
 40
200
  0
CIRCLE
  8
0
 10
300
 20
300
 30
0.0
 40
200
  0
CIRCLE
  8
0
 10
350
 20
350
 30
0.0
 40
200
  0
CIRCLE
  8
0
 10
360
 20
360
 30
0.0
 40
200
  0
CIRCLE
  8
0
 10
370
 20
370
 30
0.0
 40
200
  0
ENDSEC
  0
EOF
