  0
SECTION
  2
ENTITIES
  0
ARC
  8
0
 10
64.69817
 20
762.0001
 30
0.0
 40
64.69817
 50
0
 51
180
  0
ARC
  8
0
 10
-34.28312
 20
747.6896
 30
0.0
 40
164.3039
 50
337.9471
 51
4.996578
  0
ARC
  8
0
 10
194.4628
 20
648.9404
 30
0.0
 40
84.97057
 50
154.1421
 51
257.4503
  0
ARC
  8
0
 10
180.4306
 20
620.6782
 30
0.0
 40
54.85746
 50
265.3674
 51
29.87134
  0
ARC
  8
0
 10
202.7264
 20
634.8167
 30
0.0
 40
28.50549
 50
27.54769
 51
150.161
  0
ARC
  8
0
 10
178.3122
 20
625.9699
 30
0.0
 40
23.03215
 50
217.3393
 51
90.77663
  0
ARC
  8
0
 10
199.9079
 20
648.6364
 30
0.0
 40
54.17398
 50
54.97538
 51
222.5524
  0
ARC
  8
0
 10
177.6745
 20
619.9788
 30
0.0
 40
90.41943
 50
317.5913
 51
53.86026
  0
ARC
  8
0
 10
320.8995
 20
521.9406
 30
0.0
 40
84.97057
 50
154.1421
 51
257.4503
  0
ARC
  8
0
 10
306.8672
 20
493.6781
 30
0.0
 40
54.85746
 50
265.3674
 51
29.87134
  0
ARC
  8
0
 10
329.1628
 20
507.8167
 30
0.0
 40
28.50549
 50
27.54769
 51
150.161
  0
ARC
  8
0
 10
304.7486
 20
498.97
 30
0.0
 40
23.03215
 50
217.3393
 51
90.77663
  0
ARC
  8
0
 10
326.3442
 20
521.6362
 30
0.0
 40
54.17398
 50
54.97538
 51
222.5524
  0
ARC
  8
0
 10
304.1108
 20
492.9787
 30
0.0
 40
90.41943
 50
317.5913
 51
53.86026
  0
ARC
  8
0
 10
438.062
 20
402.3696
 30
0.0
 40
73.43264
 50
156.2039
 51
230.1421
  0
ARC
  8
0
 10
446.0791
 20
380.365
 30
0.0
 40
64.92039
 50
0.5604942
 51
211.9607
  0
ARC
  8
0
 10
399.5534
 20
359.0432
 30
0.0
 40
113.5852
 50
331.5887
 51
11.1458
  0
ARC
  8
0
 10
575.921
 20
267.9404
 30
0.0
 40
84.97057
 50
154.1421
 51
257.4503
  0
ARC
  8
0
 10
561.8888
 20
239.6782
 30
0.0
 40
54.85746
 50
265.3674
 51
29.87134
  0
ARC
  8
0
 10
584.1844
 20
253.8168
 30
0.0
 40
28.50549
 50
27.54769
 51
150.161
  0
ARC
  8
0
 10
559.7702
 20
244.97
 30
0.0
 40
23.03215
 50
217.3393
 51
90.77663
  0
ARC
  8
0
 10
581.366
 20
267.6365
 30
0.0
 40
54.17398
 50
54.97538
 51
222.5524
  0
ARC
  8
0
 10
559.1326
 20
238.979
 30
0.0
 40
90.41943
 50
317.5913
 51
53.86026
  0
ARC
  8
0
 10
702.3575
 20
140.9404
 30
0.0
 40
84.97057
 50
154.1421
 51
257.4503
  0
ARC
  8
0
 10
688.3251
 20
112.6782
 30
0.0
 40
54.85746
 50
265.3674
 51
29.87134
  0
ARC
  8
0
 10
710.6207
 20
126.8168
 30
0.0
 40
28.50549
 50
27.54769
 51
150.161
  0
ARC
  8
0
 10
686.2066
 20
117.9701
 30
0.0
 40
23.03215
 50
217.3393
 51
90.77663
  0
ARC
  8
0
 10
707.8024
 20
140.6366
 30
0.0
 40
54.17398
 50
54.97538
 51
222.5524
  0
ARC
  8
0
 10
685.5687
 20
111.9788
 30
0.0
 40
90.41943
 50
317.5913
 51
53.86026
  0
ARC
  8
0
 10
819.5198
 20
21.3695
 30
0.0
 40
73.43264
 50
156.2039
 51
230.1421
  0
ARC
  8
0
 10
825.4078
 20
-3.274426
 30
0.0
 40
61.72727
 50
210.9282
 51
284.6303
  0
ARC
  8
0
 10
826.826
 20
-0.00464445
 30
0.0
 40
64.57015
 50
282.68
 51
0.00426311
  0
ARC
  8
0
 10
826.826
 20
-0.00464445
 30
0.0
 40
64.57015
 50
282.68
 51
0.00426311
  0
ARC
  8
0
 10
799.2433
 20
-16.53026
 30
0.0
 40
62.47415
 50
247.9114
 51
311.942
  0
ARC
  8
0
 10
714.7703
 20
-141.1803
 30
0.0
 40
90.41943
 50
47.59109
 51
143.8605
  0
ARC
  8
0
 10
686.1128
 20
-118.9467
 30
0.0
 40
54.17398
 50
144.9756
 51
312.5523
  0
ARC
  8
0
 10
708.7791
 20
-140.5423
 30
0.0
 40
23.03215
 50
307.3394
 51
180.7766
  0
ARC
  8
0
 10
699.9324
 20
-116.1283
 30
0.0
 40
28.50549
 50
117.5478
 51
240.161
  0
ARC
  8
0
 10
714.071
 20
-138.424
 30
0.0
 40
54.85746
 50
355.3672
 51
119.8716
  0
ARC
  8
0
 10
685.8088
 20
-124.3916
 30
0.0
 40
84.97057
 50
244.1422
 51
347.4502
  0
ARC
  8
0
 10
587.7704
 20
-267.6165
 30
0.0
 40
90.41943
 50
47.5911
 51
143.8605
  0
ARC
  8
0
 10
559.1125
 20
-245.3831
 30
0.0
 40
54.17398
 50
144.9756
 51
312.5523
  0
ARC
  8
0
 10
581.7791
 20
-266.9789
 30
0.0
 40
23.03215
 50
307.3391
 51
180.7766
  0
ARC
  8
0
 10
572.9326
 20
-242.5647
 30
0.0
 40
28.50549
 50
117.548
 51
240.161
  0
ARC
  8
0
 10
587.0709
 20
-264.8603
 30
0.0
 40
54.85746
 50
355.3672
 51
119.8716
  0
ARC
  8
0
 10
558.8088
 20
-250.8281
 30
0.0
 40
84.97057
 50
244.1422
 51
347.4502
  0
ARC
  8
0
 10
467.7061
 20
-427.1955
 30
0.0
 40
113.5852
 50
61.58843
 51
101.146
  0
ARC
  8
0
 10
446.1237
 20
-380.9416
 30
0.0
 40
65.19
 50
90.32904
 51
213.0116
  0
ARC
  8
0
 10
444.4082
 20
-384.7324
 30
0.0
 40
61.72727
 50
210.9282
 51
284.6303
  0
ARC
  8
0
 10
445.8262
 20
-381.4627
 30
0.0
 40
64.57015
 50
282.68
 51
0.00426311
  0
ARC
  8
0
 10
445.8262
 20
-381.4627
 30
0.0
 40
64.57015
 50
282.68
 51
0.00426311
  0
ARC
  8
0
 10
418.2437
 20
-397.9883
 30
0.0
 40
62.47415
 50
247.9114
 51
311.942
  0
ARC
  8
0
 10
333.7704
 20
-522.6382
 30
0.0
 40
90.41943
 50
47.59112
 51
143.8604
  0
ARC
  8
0
 10
305.1127
 20
-500.4047
 30
0.0
 40
54.17398
 50
144.9756
 51
312.5523
  0
ARC
  8
0
 10
327.779
 20
-522.0004
 30
0.0
 40
23.03215
 50
307.3392
 51
180.7766
  0
ARC
  8
0
 10
318.9325
 20
-497.5862
 30
0.0
 40
28.50549
 50
117.5478
 51
240.1611
  0
ARC
  8
0
 10
333.071
 20
-519.8819
 30
0.0
 40
54.85746
 50
355.3673
 51
119.8715
  0
ARC
  8
0
 10
304.8088
 20
-505.8495
 30
0.0
 40
84.97057
 50
244.1422
 51
347.4502
  0
ARC
  8
0
 10
206.7703
 20
-649.0745
 30
0.0
 40
90.41943
 50
47.59109
 51
143.8605
  0
ARC
  8
0
 10
178.1127
 20
-626.841
 30
0.0
 40
54.17398
 50
144.9756
 51
312.5523
  0
ARC
  8
0
 10
200.779
 20
-648.4367
 30
0.0
 40
23.03215
 50
307.3391
 51
180.7768
  0
ARC
  8
0
 10
191.9323
 20
-624.0225
 30
0.0
 40
28.50549
 50
117.5479
 51
240.1612
  0
ARC
  8
0
 10
206.0711
 20
-646.3182
 30
0.0
 40
54.85746
 50
355.3673
 51
119.8715
  0
ARC
  8
0
 10
177.8089
 20
-632.2861
 30
0.0
 40
84.97057
 50
244.1422
 51
347.4502
  0
ARC
  8
0
 10
79.05933
 20
-861.0319
 30
0.0
 40
164.3039
 50
67.94695
 51
94.99676
  0
ARC
  8
0
 10
64.17911
 20
-761.5311
 30
0.0
 40
64.18099
 50
89.4916
 51
180.4184
  0
CIRCLE
  8
0
 10
1000
 20
7000
 30
0.0
 40
100
  0
CIRCLE
  8
0
 10
1000
 20
8000
 30
0.0
 40
100
  0
CIRCLE
  8
0
 10
2500
 20
7000
 30
0.0
 40
100
  0
CIRCLE
  8
0
 10
2500
 20
8000
 30
0.0
 40
100
  0
CIRCLE
  8
0
 10
100
 20
100
 30
0.0
 40
125
  0
CIRCLE
  8
0
 10
200
 20
200
 30
0.0
 40
200
  0
CIRCLE
  8
0
 10
300
 20
300
 30
0.0
 40
200
  0
CIRCLE
  8
0
 10
350
 20
350
 30
0.0
 40
200
  0
CIRCLE
  8
0
 10
360
 20
360
 30
0.0
 40
200
  0
CIRCLE
  8
0
 10
370
 20
370
 30
0.0
 40
200
  0
ENDSEC
  0
EOF
