  0
SECTION
  2
ENTITIES
  0
ARC
  8
0
 10
-379.553
 20
1059.902
 30
0.0
 40
382.3961
 50
180.2076
 51
269.7889
  0
ARC
  8
0
 10
-382.383
 20
295.1151
 30
0.0
 40
382.3961
 50
0.2058941
 51
89.78719
  0
ARC
  8
0
 10
1.432316
 20
678.9016
 30
0.0
 40
382.3961
 50
180.2085
 51
269.7899
  0
ARC
  8
0
 10
-763.3557
 20
676.1237
 30
0.0
 40
382.3961
 50
0.2076405
 51
89.78892
  0
ARC
  8
0
 10
-379.553
 20
1059.902
 30
0.0
 40
382.3961
 50
180.2076
 51
269.7889
  0
ARC
  8
0
 10
-382.383
 20
295.1151
 30
0.0
 40
382.3961
 50
0.2058941
 51
89.78719
  0
ARC
  8
0
 10
-382.3827
 20
297.9063
 30
0.0
 40
382.3961
 50
270.2094
 51
359.7907
  0
ARC
  8
0
 10
-379.589
 20
-466.8806
 30
0.0
 40
382.3961
 50
90.20947
 51
179.7907
  0
ARC
  8
0
 10
-763.381
 20
-83.08923
 30
0.0
 40
382.3961
 50
270.2094
 51
359.7907
  0
ARC
  8
0
 10
1.406864
 20
-85.90313
 30
0.0
 40
382.3961
 50
90.20648
 51
179.7878
  0
ARC
  8
0
 10
-382.3827
 20
297.9063
 30
0.0
 40
382.3961
 50
270.2094
 51
359.7907
  0
ARC
  8
0
 10
-379.589
 20
-466.8806
 30
0.0
 40
382.3961
 50
90.20947
 51
179.7907
  0
CIRCLE
  8
0
 10
1000
 20
7000
 30
0.0
 40
100
  0
CIRCLE
  8
0
 10
1000
 20
8000
 30
0.0
 40
100
  0
CIRCLE
  8
0
 10
2500
 20
7000
 30
0.0
 40
100
  0
CIRCLE
  8
0
 10
2500
 20
8000
 30
0.0
 40
100
  0
CIRCLE
  8
0
 10
4000
 20
7000
 30
0.0
 40
100
  0
CIRCLE
  8
0
 10
4000
 20
8000
 30
0.0
 40
100
  0
CIRCLE
  8
0
 10
100
 20
100
 30
0.0
 40
127
  0
CIRCLE
  8
0
 10
200
 20
200
 30
0.0
 40
198
  0
CIRCLE
  8
0
 10
300
 20
300
 30
0.0
 40
187
  0
CIRCLE
  8
0
 10
350
 20
350
 30
0.0
 40
202
  0
CIRCLE
  8
0
 10
360
 20
360
 30
0.0
 40
202
  0
CIRCLE
  8
0
 10
370
 20
370
 30
0.0
 40
200
  0
ENDSEC
  0
EOF
