  0
SECTION
  2
ENTITIES
  0
ARC
  8
0
 10
5004.742
 20
1267.288
 30
0.0
 40
66.05121
 50
35.14376
 51
210.5364
  0
LINE
  8
0
 10
5058.752
 20
1305.315
 30
0.0
 11
5118.386
 21
1319.19
 31
0.0
  0
ARC
  8
0
 10
5306.205
 20
1386.905
 30
0.0
 40
199.6501
 50
130.8412
 51
199.8254
  0
ARC
  8
0
 10
5301.37
 20
1390.453
 30
0.0
 40
193.8119
 50
123.9055
 51
130.4471
  0
ARC
  8
0
 10
5212.517
 20
1571.274
 30
0.0
 40
27.73938
 50
6.30124
 51
226.038
  0
ARC
  8
0
 10
5301.37
 20
1390.453
 30
0.0
 40
193.8119
 50
108.4338
 51
123.9055
  0
ARC
  8
0
 10
5301.37
 20
1390.453
 30
0.0
 40
193.8119
 50
123.9055
 51
130.4471
  0
ARC
  8
0
 10
5206.463
 20
1582.029
 30
0.0
 40
53.78773
 50
357.6753
 51
235.0351
  0
ARC
  8
0
 10
5301.37
 20
1390.453
 30
0.0
 40
193.8119
 50
355.61
 51
102.2633
  0
ARC
  8
0
 10
5301.37
 20
1390.453
 30
0.0
 40
193.8119
 50
348.4182
 51
355.61
  0
ARC
  8
0
 10
5492.979
 20
1326.753
 30
0.0
 40
24.84768
 50
229.2155
 51
94.00594
  0
ARC
  8
0
 10
5301.37
 20
1390.453
 30
0.0
 40
193.8119
 50
334.803
 51
348.4182
  0
ARC
  8
0
 10
5301.37
 20
1390.453
 30
0.0
 40
193.8119
 50
348.4182
 51
355.61
  0
ARC
  8
0
 10
5495.192
 20
1326.504
 30
0.0
 40
49.11996
 50
232.8031
 51
90.67625
  0
ARC
  8
0
 10
5304.268
 20
1386.097
 30
0.0
 40
189.051
 50
278.8116
 51
328.5209
  0
ARC
  8
0
 10
5214.214
 20
1113.064
 30
0.0
 40
146.9603
 50
35.92052
 51
48.64941
  0
ARC
  8
0
 10
5245.24
 20
1284.1
 30
0.0
 40
89.73083
 50
317.4161
 51
39.39877
  0
LINE
  8
0
 10
5314.571
 20
1341.055
 30
0.0
 11
5338.442
 21
1357.864
 31
0.0
  0
LINE
  8
0
 10
5338.442
 20
1357.864
 30
0.0
 11
5345.412
 21
1352.585
 31
0.0
  0
LINE
  8
0
 10
5345.412
 20
1352.585
 30
0.0
 11
5332.003
 21
1371.995
 31
0.0
  0
LINE
  8
0
 10
5332.003
 20
1371.995
 30
0.0
 11
5349.688
 21
1350.875
 31
0.0
  0
LINE
  8
0
 10
5349.688
 20
1350.875
 30
0.0
 11
5332.173
 21
1378.675
 31
0.0
  0
LINE
  8
0
 10
5332.173
 20
1378.675
 30
0.0
 11
5353.225
 21
1350.11
 31
0.0
  0
LINE
  8
0
 10
5353.225
 20
1350.11
 30
0.0
 11
5333.207
 21
1382.779
 31
0.0
  0
LINE
  8
0
 10
5333.207
 20
1382.779
 30
0.0
 11
5356.734
 21
1349.871
 31
0.0
  0
LINE
  8
0
 10
5356.734
 20
1349.871
 30
0.0
 11
5336.167
 21
1388.714
 31
0.0
  0
LINE
  8
0
 10
5336.167
 20
1388.714
 30
0.0
 11
5361.242
 21
1350.289
 31
0.0
  0
LINE
  8
0
 10
5361.242
 20
1350.289
 30
0.0
 11
5342.388
 21
1395.034
 31
0.0
  0
LINE
  8
0
 10
5342.388
 20
1395.034
 30
0.0
 11
5366.354
 21
1351.819
 31
0.0
  0
LINE
  8
0
 10
5366.354
 20
1351.819
 30
0.0
 11
5347.936
 21
1397.966
 31
0.0
  0
LINE
  8
0
 10
5347.936
 20
1397.966
 30
0.0
 11
5371.017
 21
1354.404
 31
0.0
  0
LINE
  8
0
 10
5371.017
 20
1354.404
 30
0.0
 11
5353.084
 21
1399.299
 31
0.0
  0
LINE
  8
0
 10
5353.084
 20
1399.299
 30
0.0
 11
5374.972
 21
1357.872
 31
0.0
  0
LINE
  8
0
 10
5374.972
 20
1357.872
 30
0.0
 11
5359.646
 21
1399.388
 31
0.0
  0
LINE
  8
0
 10
5359.646
 20
1399.388
 30
0.0
 11
5377.82
 21
1361.62
 31
0.0
  0
LINE
  8
0
 10
5377.82
 20
1361.62
 30
0.0
 11
5367.254
 21
1397.212
 31
0.0
  0
LINE
  8
0
 10
5367.254
 20
1397.212
 30
0.0
 11
5380.32
 21
1366.986
 31
0.0
  0
LINE
  8
0
 10
5380.32
 20
1366.986
 30
0.0
 11
5373.084
 21
1393.396
 31
0.0
  0
LINE
  8
0
 10
5373.084
 20
1393.396
 30
0.0
 11
5381.509
 21
1376.1
 31
0.0
  0
LINE
  8
0
 10
5381.509
 20
1376.1
 30
0.0
 11
5373.084
 21
1393.396
 31
0.0
  0
LINE
  8
0
 10
5373.084
 20
1393.396
 30
0.0
 11
5380.32
 21
1366.986
 31
0.0
  0
LINE
  8
0
 10
5380.32
 20
1366.986
 30
0.0
 11
5367.254
 21
1397.212
 31
0.0
  0
LINE
  8
0
 10
5367.254
 20
1397.212
 30
0.0
 11
5377.82
 21
1361.62
 31
0.0
  0
LINE
  8
0
 10
5377.82
 20
1361.62
 30
0.0
 11
5359.646
 21
1399.388
 31
0.0
  0
LINE
  8
0
 10
5359.646
 20
1399.388
 30
0.0
 11
5374.972
 21
1357.872
 31
0.0
  0
LINE
  8
0
 10
5374.972
 20
1357.872
 30
0.0
 11
5353.084
 21
1399.299
 31
0.0
  0
LINE
  8
0
 10
5353.084
 20
1399.299
 30
0.0
 11
5371.017
 21
1354.404
 31
0.0
  0
LINE
  8
0
 10
5371.017
 20
1354.404
 30
0.0
 11
5347.936
 21
1397.966
 31
0.0
  0
LINE
  8
0
 10
5347.936
 20
1397.966
 30
0.0
 11
5366.354
 21
1351.819
 31
0.0
  0
LINE
  8
0
 10
5366.354
 20
1351.819
 30
0.0
 11
5342.388
 21
1395.034
 31
0.0
  0
LINE
  8
0
 10
5342.388
 20
1395.034
 30
0.0
 11
5361.242
 21
1350.289
 31
0.0
  0
LINE
  8
0
 10
5361.242
 20
1350.289
 30
0.0
 11
5336.167
 21
1388.714
 31
0.0
  0
LINE
  8
0
 10
5336.167
 20
1388.714
 30
0.0
 11
5356.734
 21
1349.871
 31
0.0
  0
LINE
  8
0
 10
5356.734
 20
1349.871
 30
0.0
 11
5333.207
 21
1382.779
 31
0.0
  0
LINE
  8
0
 10
5333.207
 20
1382.779
 30
0.0
 11
5353.225
 21
1350.11
 31
0.0
  0
LINE
  8
0
 10
5353.225
 20
1350.11
 30
0.0
 11
5332.173
 21
1378.675
 31
0.0
  0
LINE
  8
0
 10
5332.173
 20
1378.675
 30
0.0
 11
5349.688
 21
1350.875
 31
0.0
  0
LINE
  8
0
 10
5349.688
 20
1350.875
 30
0.0
 11
5332.003
 21
1371.995
 31
0.0
  0
LINE
  8
0
 10
5332.003
 20
1371.995
 30
0.0
 11
5345.412
 21
1352.585
 31
0.0
  0
LINE
  8
0
 10
5345.412
 20
1352.585
 30
0.0
 11
5338.442
 21
1357.864
 31
0.0
  0
LINE
  8
0
 10
5338.442
 20
1357.864
 30
0.0
 11
5314.571
 21
1341.055
 31
0.0
  0
ARC
  8
0
 10
5245.614
 20
1284.085
 30
0.0
 40
89.45162
 50
39.55822
 51
70.68477
  0
LINE
  8
0
 10
5275.203
 20
1368.507
 30
0.0
 11
5255.267
 21
1322.976
 31
0.0
  0
LINE
  8
0
 10
5255.267
 20
1322.976
 30
0.0
 11
5245.492
 21
1323.007
 31
0.0
  0
LINE
  8
0
 10
5245.492
 20
1323.007
 30
0.0
 11
5259.767
 21
1320.462
 31
0.0
  0
LINE
  8
0
 10
5259.767
 20
1320.462
 30
0.0
 11
5241.033
 21
1320.551
 31
0.0
  0
LINE
  8
0
 10
5241.033
 20
1320.551
 30
0.0
 11
5261.479
 21
1318.822
 31
0.0
  0
LINE
  8
0
 10
5261.479
 20
1318.822
 30
0.0
 11
5238.786
 21
1318.314
 31
0.0
  0
LINE
  8
0
 10
5238.786
 20
1318.314
 30
0.0
 11
5263.056
 21
1316.685
 31
0.0
  0
LINE
  8
0
 10
5263.056
 20
1316.685
 30
0.0
 11
5236.689
 21
1314.887
 31
0.0
  0
LINE
  8
0
 10
5236.689
 20
1314.887
 30
0.0
 11
5264.37
 21
1313.971
 31
0.0
  0
LINE
  8
0
 10
5264.37
 20
1313.971
 30
0.0
 11
5235.805
 21
1312.212
 31
0.0
  0
LINE
  8
0
 10
5235.805
 20
1312.212
 30
0.0
 11
5265.083
 21
1311.178
 31
0.0
  0
LINE
  8
0
 10
5265.083
 20
1311.178
 30
0.0
 11
5235.437
 21
1308.833
 31
0.0
  0
LINE
  8
0
 10
5235.437
 20
1308.833
 30
0.0
 11
5265.244
 21
1308.337
 31
0.0
  0
LINE
  8
0
 10
5265.244
 20
1308.337
 30
0.0
 11
5235.834
 21
1305.464
 31
0.0
  0
LINE
  8
0
 10
5235.834
 20
1305.464
 30
0.0
 11
5264.808
 21
1305.275
 31
0.0
  0
LINE
  8
0
 10
5264.808
 20
1305.275
 30
0.0
 11
5236.838
 21
1302.591
 31
0.0
  0
LINE
  8
0
 10
5236.838
 20
1302.591
 30
0.0
 11
5263.327
 21
1301.578
 31
0.0
  0
LINE
  8
0
 10
5263.327
 20
1301.578
 30
0.0
 11
5239.271
 21
1298.924
 31
0.0
  0
LINE
  8
0
 10
5239.271
 20
1298.924
 30
0.0
 11
5260.872
 21
1298.346
 31
0.0
  0
LINE
  8
0
 10
5260.872
 20
1298.346
 30
0.0
 11
5242.066
 21
1296.509
 31
0.0
  0
LINE
  8
0
 10
5242.066
 20
1296.509
 30
0.0
 11
5256.786
 21
1295.465
 31
0.0
  0
LINE
  8
0
 10
5256.786
 20
1295.465
 30
0.0
 11
5248.239
 21
1294.143
 31
0.0
  0
LINE
  8
0
 10
5248.239
 20
1294.143
 30
0.0
 11
5256.786
 21
1295.465
 31
0.0
  0
LINE
  8
0
 10
5256.786
 20
1295.465
 30
0.0
 11
5242.066
 21
1296.509
 31
0.0
  0
LINE
  8
0
 10
5242.066
 20
1296.509
 30
0.0
 11
5260.872
 21
1298.346
 31
0.0
  0
LINE
  8
0
 10
5260.872
 20
1298.346
 30
0.0
 11
5239.271
 21
1298.924
 31
0.0
  0
LINE
  8
0
 10
5239.271
 20
1298.924
 30
0.0
 11
5263.327
 21
1301.578
 31
0.0
  0
LINE
  8
0
 10
5263.327
 20
1301.578
 30
0.0
 11
5236.838
 21
1302.591
 31
0.0
  0
LINE
  8
0
 10
5236.838
 20
1302.591
 30
0.0
 11
5264.808
 21
1305.275
 31
0.0
  0
LINE
  8
0
 10
5264.808
 20
1305.275
 30
0.0
 11
5235.834
 21
1305.464
 31
0.0
  0
LINE
  8
0
 10
5235.834
 20
1305.464
 30
0.0
 11
5265.244
 21
1308.337
 31
0.0
  0
LINE
  8
0
 10
5265.244
 20
1308.337
 30
0.0
 11
5235.437
 21
1308.833
 31
0.0
  0
LINE
  8
0
 10
5235.437
 20
1308.833
 30
0.0
 11
5265.083
 21
1311.178
 31
0.0
  0
LINE
  8
0
 10
5265.083
 20
1311.178
 30
0.0
 11
5235.805
 21
1312.212
 31
0.0
  0
LINE
  8
0
 10
5235.805
 20
1312.212
 30
0.0
 11
5264.37
 21
1313.971
 31
0.0
  0
LINE
  8
0
 10
5264.37
 20
1313.971
 30
0.0
 11
5236.689
 21
1314.887
 31
0.0
  0
LINE
  8
0
 10
5236.689
 20
1314.887
 30
0.0
 11
5263.056
 21
1316.685
 31
0.0
  0
LINE
  8
0
 10
5263.056
 20
1316.685
 30
0.0
 11
5238.786
 21
1318.314
 31
0.0
  0
LINE
  8
0
 10
5238.786
 20
1318.314
 30
0.0
 11
5261.479
 21
1318.822
 31
0.0
  0
LINE
  8
0
 10
5261.479
 20
1318.822
 30
0.0
 11
5241.033
 21
1320.551
 31
0.0
  0
LINE
  8
0
 10
5241.033
 20
1320.551
 30
0.0
 11
5259.767
 21
1320.462
 31
0.0
  0
LINE
  8
0
 10
5259.767
 20
1320.462
 30
0.0
 11
5245.492
 21
1323.007
 31
0.0
  0
LINE
  8
0
 10
5245.492
 20
1323.007
 30
0.0
 11
5255.267
 21
1322.976
 31
0.0
  0
LINE
  8
0
 10
5255.267
 20
1322.976
 30
0.0
 11
5275.203
 21
1368.507
 31
0.0
  0
ARC
  8
0
 10
5245.614
 20
1284.085
 30
0.0
 40
89.45162
 50
70.68477
 51
100.3738
  0
LINE
  8
0
 10
5229.501
 20
1372.076
 30
0.0
 11
5226.682
 21
1391.755
 31
0.0
  0
LINE
  8
0
 10
5226.682
 20
1391.755
 30
0.0
 11
5240.416
 21
1395.89
 31
0.0
  0
LINE
  8
0
 10
5240.416
 20
1395.89
 30
0.0
 11
5217.515
 21
1393.505
 31
0.0
  0
LINE
  8
0
 10
5217.515
 20
1393.505
 30
0.0
 11
5244.124
 21
1398.901
 31
0.0
  0
LINE
  8
0
 10
5244.124
 20
1398.901
 30
0.0
 11
5211.968
 21
1396.575
 31
0.0
  0
LINE
  8
0
 10
5211.968
 20
1396.575
 30
0.0
 11
5246.836
 21
1402.072
 31
0.0
  0
LINE
  8
0
 10
5246.836
 20
1402.072
 30
0.0
 11
5209.109
 21
1399.04
 31
0.0
  0
LINE
  8
0
 10
5209.109
 20
1399.04
 30
0.0
 11
5248.744
 21
1405.172
 31
0.0
  0
LINE
  8
0
 10
5248.744
 20
1405.172
 30
0.0
 11
5207.289
 21
1401.068
 31
0.0
  0
LINE
  8
0
 10
5207.289
 20
1401.068
 30
0.0
 11
5250.108
 21
1408.304
 31
0.0
  0
LINE
  8
0
 10
5250.108
 20
1408.304
 30
0.0
 11
5205.25
 21
1404.021
 31
0.0
  0
LINE
  8
0
 10
5205.25
 20
1404.021
 30
0.0
 11
5251.181
 21
1412.428
 31
0.0
  0
LINE
  8
0
 10
5251.181
 20
1412.428
 30
0.0
 11
5203.921
 21
1406.633
 31
0.0
  0
LINE
  8
0
 10
5203.921
 20
1406.633
 30
0.0
 11
5251.53
 21
1416.662
 31
0.0
  0
LINE
  8
0
 10
5251.53
 20
1416.662
 30
0.0
 11
5202.538
 21
1410.719
 31
0.0
  0
LINE
  8
0
 10
5202.538
 20
1410.719
 30
0.0
 11
5250.85
 21
1422.377
 31
0.0
  0
LINE
  8
0
 10
5250.85
 20
1422.377
 30
0.0
 11
5201.844
 21
1415.856
 31
0.0
  0
LINE
  8
0
 10
5201.844
 20
1415.856
 30
0.0
 11
5248.812
 21
1427.893
 31
0.0
  0
LINE
  8
0
 10
5248.812
 20
1427.893
 30
0.0
 11
5202.46
 21
1422.14
 31
0.0
  0
LINE
  8
0
 10
5202.46
 20
1422.14
 30
0.0
 11
5244.371
 21
1434.056
 31
0.0
  0
LINE
  8
0
 10
5244.371
 20
1434.056
 30
0.0
 11
5204.537
 21
1427.874
 31
0.0
  0
LINE
  8
0
 10
5204.537
 20
1427.874
 30
0.0
 11
5239.771
 21
1437.723
 31
0.0
  0
LINE
  8
0
 10
5239.771
 20
1437.723
 30
0.0
 11
5209.385
 21
1434.433
 31
0.0
  0
LINE
  8
0
 10
5209.385
 20
1434.433
 30
0.0
 11
5228.958
 21
1441.341
 31
0.0
  0
LINE
  8
0
 10
5228.958
 20
1441.341
 30
0.0
 11
5209.385
 21
1434.433
 31
0.0
  0
LINE
  8
0
 10
5209.385
 20
1434.433
 30
0.0
 11
5239.771
 21
1437.723
 31
0.0
  0
LINE
  8
0
 10
5239.771
 20
1437.723
 30
0.0
 11
5204.537
 21
1427.874
 31
0.0
  0
LINE
  8
0
 10
5204.537
 20
1427.874
 30
0.0
 11
5244.371
 21
1434.056
 31
0.0
  0
LINE
  8
0
 10
5244.371
 20
1434.056
 30
0.0
 11
5202.46
 21
1422.14
 31
0.0
  0
LINE
  8
0
 10
5202.46
 20
1422.14
 30
0.0
 11
5248.812
 21
1427.893
 31
0.0
  0
LINE
  8
0
 10
5248.812
 20
1427.893
 30
0.0
 11
5201.844
 21
1415.856
 31
0.0
  0
LINE
  8
0
 10
5201.844
 20
1415.856
 30
0.0
 11
5250.85
 21
1422.377
 31
0.0
  0
LINE
  8
0
 10
5250.85
 20
1422.377
 30
0.0
 11
5202.538
 21
1410.719
 31
0.0
  0
LINE
  8
0
 10
5202.538
 20
1410.719
 30
0.0
 11
5251.53
 21
1416.662
 31
0.0
  0
LINE
  8
0
 10
5251.53
 20
1416.662
 30
0.0
 11
5203.921
 21
1406.633
 31
0.0
  0
LINE
  8
0
 10
5203.921
 20
1406.633
 30
0.0
 11
5251.181
 21
1412.428
 31
0.0
  0
LINE
  8
0
 10
5251.181
 20
1412.428
 30
0.0
 11
5205.25
 21
1404.021
 31
0.0
  0
LINE
  8
0
 10
5205.25
 20
1404.021
 30
0.0
 11
5250.108
 21
1408.304
 31
0.0
  0
LINE
  8
0
 10
5250.108
 20
1408.304
 30
0.0
 11
5207.289
 21
1401.068
 31
0.0
  0
LINE
  8
0
 10
5207.289
 20
1401.068
 30
0.0
 11
5248.744
 21
1405.172
 31
0.0
  0
LINE
  8
0
 10
5248.744
 20
1405.172
 30
0.0
 11
5209.109
 21
1399.04
 31
0.0
  0
LINE
  8
0
 10
5209.109
 20
1399.04
 30
0.0
 11
5246.836
 21
1402.072
 31
0.0
  0
LINE
  8
0
 10
5246.836
 20
1402.072
 30
0.0
 11
5211.968
 21
1396.575
 31
0.0
  0
LINE
  8
0
 10
5211.968
 20
1396.575
 30
0.0
 11
5244.124
 21
1398.901
 31
0.0
  0
LINE
  8
0
 10
5244.124
 20
1398.901
 30
0.0
 11
5217.515
 21
1393.505
 31
0.0
  0
LINE
  8
0
 10
5217.515
 20
1393.505
 30
0.0
 11
5240.416
 21
1395.89
 31
0.0
  0
LINE
  8
0
 10
5240.416
 20
1395.89
 30
0.0
 11
5226.682
 21
1391.755
 31
0.0
  0
LINE
  8
0
 10
5226.682
 20
1391.755
 30
0.0
 11
5229.501
 21
1372.076
 31
0.0
  0
ARC
  8
0
 10
5245.608
 20
1284.087
 30
0.0
 40
89.45162
 50
100.3738
 51
193.3147
  0
LINE
  8
0
 10
5158.569
 20
1263.481
 30
0.0
 11
5148.737
 21
1276.124
 31
0.0
  0
LINE
  8
0
 10
5148.737
 20
1276.124
 30
0.0
 11
5089.102
 21
1262.239
 31
0.0
  0
ARC
  8
0
 10
5086.249
 20
1233.534
 30
0.0
 40
28.84316
 50
313.6161
 51
84.32404
  0
ARC
  8
0
 10
5214.214
 20
1113.064
 30
0.0
 40
146.9603
 50
48.64941
 51
137.338
  0
ARC
  8
0
 10
5214.214
 20
1113.064
 30
0.0
 40
146.9603
 50
35.92052
 51
48.64941
  0
ARC
  8
0
 10
5214.214
 20
1113.064
 30
0.0
 40
146.9603
 50
308.9256
 51
35.92052
  0
ARC
  8
0
 10
5306.757
 20
949.5357
 30
0.0
 40
49.19891
 50
197.217
 51
90.23605
  0
ARC
  8
0
 10
5122.041
 20
1052.345
 30
0.0
 40
180.955
 50
218.3881
 51
319.562
  0
ARC
  8
0
 10
5026.813
 20
961.2146
 30
0.0
 40
51.22896
 50
45.2983
 51
204.4943
  0
ARC
  8
0
 10
5103.662
 20
1027.716
 30
0.0
 40
50.703
 50
216.3995
 51
310.2579
  0
ARC
  8
0
 10
5051.442
 20
928.7234
 30
0.0
 40
104.2002
 50
35.35604
 51
127.2929
  0
ARC
  8
0
 10
4917.842
 20
1085.482
 30
0.0
 40
102.0855
 50
173.9587
 51
313.6537
  0
ARC
  8
0
 10
4895.131
 20
1076.05
 30
0.0
 40
81.34518
 50
26.78469
 51
165.6396
  0
ARC
  8
0
 10
5016.001
 20
1134.611
 30
0.0
 40
52.99444
 50
204.4095
 51
27.53688
  0
ARC
  8
0
 10
5005.188
 20
1196.054
 30
0.0
 40
68.60687
 50
146.6945
 51
327.4145
  0
ARC
  8
0
 10
4916.314
 20
1040.746
 30
0.0
 40
195.5449
 50
80.71807
 51
243.3437
  0
ARC
  8
0
 10
4747.447
 20
682.7411
 30
0.0
 40
200.4044
 50
288.6859
 51
66.118
  0
ARC
  8
0
 10
4771.164
 20
612.453
 30
0.0
 40
126.2262
 50
288.7095
 51
108.7095
  0
ARC
  8
0
 10
4771.164
 20
612.453
 30
0.0
 40
126.2262
 50
108.7095
 51
288.7095
  0
LINE
  8
0
 10
4811.653
 20
492.8955
 30
0.0
 11
4947.849
 21
90.73083
 31
0.0
  0
CIRCLE
  8
0
 10
1000
 20
7000
 30
0.0
 40
100
  0
CIRCLE
  8
0
 10
2500
 20
7000
 30
0.0
 40
100
  0
CIRCLE
  8
0
 10
100
 20
100
 30
0.0
 40
125
  0
CIRCLE
  8
0
 10
200
 20
200
 30
0.0
 40
200
  0
CIRCLE
  8
0
 10
300
 20
300
 30
0.0
 40
200
  0
CIRCLE
  8
0
 10
350
 20
350
 30
0.0
 40
200
  0
CIRCLE
  8
0
 10
360
 20
360
 30
0.0
 40
200
  0
CIRCLE
  8
0
 10
370
 20
370
 30
0.0
 40
200
  0
ENDSEC
  0
EOF
