  0
SECTION
  2
ENTITIES
  0
ARC
  8
0
 10
5219.274
 20
1747.212
 30
0.0
 40
133.6824
 50
227.0931
 51
276.3159
  0
ARC
  8
0
 10
5363.011
 20
1707.294
 30
0.0
 40
159.0327
 50
215.7688
 51
263.0727
  0
ARC
  8
0
 10
5371.042
 20
1581.95
 30
0.0
 40
42.40485
 50
99.44057
 51
230.0807
  0
ARC
  8
0
 10
5391.416
 20
1525.164
 30
0.0
 40
102.3282
 50
357.4132
 51
105.4864
  0
ARC
  8
0
 10
5409.244
 20
1534.992
 30
0.0
 40
85.62771
 50
237.9671
 51
350.2919
  0
LINE
  8
0
 10
5363.82
 20
1462.397
 30
0.0
 11
5128.261
 21
1563.554
 31
0.0
  0
LINE
  8
0
 10
5128.261
 20
1563.554
 30
0.0
 11
5100.017
 21
1515.328
 31
0.0
  0
LINE
  8
0
 10
5100.017
 20
1515.328
 30
0.0
 11
4864.458
 21
1616.483
 31
0.0
  0
ARC
  8
0
 10
4819.04
 20
1543.89
 30
0.0
 40
85.62771
 50
57.9671
 51
170.2919
  0
ARC
  8
0
 10
4836.868
 20
1553.717
 30
0.0
 40
102.3282
 50
177.4132
 51
285.4864
  0
ARC
  8
0
 10
4857.227
 20
1496.931
 30
0.0
 40
42.40485
 50
279.4406
 51
50.0807
  0
ARC
  8
0
 10
4865.258
 20
1371.576
 30
0.0
 40
159.0327
 50
35.76886
 51
83.07269
  0
ARC
  8
0
 10
5009.009
 20
1331.669
 30
0.0
 40
133.6824
 50
47.09306
 51
96.31588
  0
ARC
  8
0
 10
5009.009
 20
1527.501
 30
0.0
 40
133.6824
 50
263.6841
 51
312.907
  0
ARC
  8
0
 10
4865.258
 20
1487.583
 30
0.0
 40
159.0327
 50
276.9273
 51
324.2311
  0
ARC
  8
0
 10
4857.227
 20
1362.239
 30
0.0
 40
42.40485
 50
309.9193
 51
80.55942
  0
ARC
  8
0
 10
4836.868
 20
1305.454
 30
0.0
 40
102.3282
 50
74.51362
 51
182.5868
  0
ARC
  8
0
 10
4819.04
 20
1315.281
 30
0.0
 40
85.62771
 50
189.7081
 51
302.0329
  0
LINE
  8
0
 10
4864.458
 20
1242.686
 30
0.0
 11
5100.017
 21
1343.843
 31
0.0
  0
LINE
  8
0
 10
5100.017
 20
1343.843
 30
0.0
 11
5128.261
 21
1295.617
 31
0.0
  0
LINE
  8
0
 10
5128.261
 20
1295.617
 30
0.0
 11
5363.82
 21
1396.773
 31
0.0
  0
ARC
  8
0
 10
5409.244
 20
1324.179
 30
0.0
 40
85.62771
 50
9.708101
 51
122.0329
  0
ARC
  8
0
 10
5391.416
 20
1334.006
 30
0.0
 40
102.3282
 50
254.5136
 51
2.586812
  0
ARC
  8
0
 10
5371.042
 20
1277.221
 30
0.0
 40
42.40485
 50
129.9193
 51
260.5594
  0
ARC
  8
0
 10
5363.011
 20
1151.866
 30
0.0
 40
159.0327
 50
96.92728
 51
144.2311
  0
ARC
  8
0
 10
5219.274
 20
1111.959
 30
0.0
 40
133.6824
 50
83.68416
 51
132.907
  0
CIRCLE
  8
0
 10
1000
 20
7000
 30
0.0
 40
100
  0
CIRCLE
  8
0
 10
2500
 20
8000
 30
0.0
 40
100
  0
CIRCLE
  8
0
 10
4000
 20
7000
 30
0.0
 40
100
  0
CIRCLE
  8
0
 10
100
 20
100
 30
0.0
 40
125
  0
CIRCLE
  8
0
 10
200
 20
200
 30
0.0
 40
200
  0
CIRCLE
  8
0
 10
300
 20
300
 30
0.0
 40
200
  0
CIRCLE
  8
0
 10
350
 20
350
 30
0.0
 40
200
  0
CIRCLE
  8
0
 10
360
 20
360
 30
0.0
 40
200
  0
CIRCLE
  8
0
 10
370
 20
370
 30
0.0
 40
200
  0
ENDSEC
  0
EOF
