  0
SECTION
  2
ENTITIES
  0
ARC
  8
0
 10
4297.653
 20
2430.173
 30
0.0
 40
127.233
 50
.209511
 51
89.99999
  0
ARC
  8
0
 10
4424.888
 20
2303.401
 30
0.0
 40
127.233
 50
.209511
 51
89.99999
  0
ARC
  8
0
 10
4552.118
 20
2176.638
 30
0.0
 40
127.233
 50
.209511
 51
89.99999
  0
ARC
  8
0
 10
4679.354
 20
2049.867
 30
0.0
 40
127.233
 50
.209511
 51
89.99999
  0
ARC
  8
0
 10
4806.583
 20
1923.104
 30
0.0
 40
127.233
 50
.209511
 51
89.99999
  0
ARC
  8
0
 10
4933.818
 20
1796.332
 30
0.0
 40
127.233
 50
.209511
 51
89.99999
  0
ARC
  8
0
 10
5064.307
 20
1669.571
 30
0.0
 40
127.233
 50
90.20953
 51
180
  0
ARC
  8
0
 10
4937.546
 20
1542.337
 30
0.0
 40
127.233
 50
90.20953
 51
180
  0
ARC
  8
0
 10
4810.771
 20
1415.104
 30
0.0
 40
127.233
 50
90.20953
 51
180
  0
ARC
  8
0
 10
4684
 20
1287.87
 30
0.0
 40
127.233
 50
90.20953
 51
180
  0
ARC
  8
0
 10
4557.24
 20
1160.638
 30
0.0
 40
127.233
 50
90.20953
 51
180
  0
ARC
  8
0
 10
4430.465
 20
1033.405
 30
0.0
 40
127.233
 50
90.20953
 51
180
  0
CIRCLE
  8
0
 10
1000
 20
7000
 30
0.0
 40
100
  0
CIRCLE
  8
0
 10
1000
 20
8000
 30
0.0
 40
100
  0
CIRCLE
  8
0
 10
2500
 20
7000
 30
0.0
 40
100
  0
CIRCLE
  8
0
 10
2500
 20
8000
 30
0.0
 40
100
  0
CIRCLE
  8
0
 10
100
 20
100
 30
0.0
 40
125
  0
CIRCLE
  8
0
 10
200
 20
200
 30
0.0
 40
200
  0
CIRCLE
  8
0
 10
300
 20
300
 30
0.0
 40
200
  0
CIRCLE
  8
0
 10
350
 20
350
 30
0.0
 40
200
  0
CIRCLE
  8
0
 10
360
 20
360
 30
0.0
 40
200
  0
CIRCLE
  8
0
 10
370
 20
370
 30
0.0
 40
200
  0
ENDSEC
  0
EOF
