  0
SECTION
  2
ENTITIES
  0
LINE
  8
0
 10
4420.163
 20
1992.461
 30
0.0
 11
4420.163
 21
1611.461
 31
0.0
  0
ARC
  8
0
 10
4515.163
 20
1611.461
 30
0.0
 40
94.99999
 50
0
 51
180
  0
ARC
  8
0
 10
4515.163
 20
1611.461
 30
0.0
 40
94.99999
 50
180
 51
0
  0
ARC
  8
0
 10
4610.163
 20
1611.461
 30
0.0
 40
190
 50
0
 51
180
  0
ARC
  8
0
 10
4610.163
 20
1611.461
 30
0.0
 40
190
 50
180
 51
0
  0
ARC
  8
0
 10
4705.163
 20
1611.461
 30
0.0
 40
285
 50
0
 51
180
  0
ARC
  8
0
 10
4705.163
 20
1611.461
 30
0.0
 40
285
 50
180
 51
0
  0
ARC
  8
0
 10
4801.149
 20
1611.461
 30
0.0
 40
380.9999
 50
0
 51
180
  0
ARC
  8
0
 10
4801.149
 20
1611.461
 30
0.0
 40
380.9999
 50
180
 51
0
  0
LINE
  8
0
 10
4420.163
 20
1611.461
 30
0.0
 11
4420.163
 21
1230.46
 31
0.0
  0
LINE
  8
0
 10
4420.163
 20
1230.46
 30
0.0
 11
5182.15
 21
1230.46
 31
0.0
  0
LINE
  8
0
 10
5182.15
 20
1230.46
 30
0.0
 11
5182.15
 21
849.4603
 31
0.0
  0
ARC
  8
0
 10
5087.15
 20
849.4603
 30
0.0
 40
94.99999
 50
0
 51
180
  0
ARC
  8
0
 10
5087.15
 20
849.4603
 30
0.0
 40
94.99999
 50
180
 51
0
  0
ARC
  8
0
 10
4992.15
 20
849.4603
 30
0.0
 40
190
 50
0
 51
180
  0
ARC
  8
0
 10
4992.15
 20
849.4603
 30
0.0
 40
190
 50
180
 51
0
  0
ARC
  8
0
 10
4897.15
 20
849.4603
 30
0.0
 40
285
 50
0
 51
180
  0
ARC
  8
0
 10
4897.15
 20
849.4603
 30
0.0
 40
285
 50
180
 51
0
  0
ARC
  8
0
 10
4801.149
 20
849.4603
 30
0.0
 40
380.9999
 50
0
 51
180
  0
ARC
  8
0
 10
4801.149
 20
849.4603
 30
0.0
 40
380.9999
 50
180
 51
0
  0
LINE
  8
0
 10
5182.15
 20
849.4603
 30
0.0
 11
5182.15
 21
468.4605
 31
0.0
  0
LINE
  8
0
 10
5182.15
 20
468.4605
 30
0.0
 11
4420.163
 21
468.4605
 31
0.0
  0
CIRCLE
  8
0
 10
1000
 20
7000
 30
0.0
 40
100
  0
CIRCLE
  8
0
 10
2500
 20
7000
 30
0.0
 40
100
  0
CIRCLE
  8
0
 10
100
 20
100
 30
0.0
 40
125
  0
CIRCLE
  8
0
 10
200
 20
200
 30
0.0
 40
200
  0
CIRCLE
  8
0
 10
300
 20
300
 30
0.0
 40
200
  0
CIRCLE
  8
0
 10
350
 20
350
 30
0.0
 40
200
  0
CIRCLE
  8
0
 10
360
 20
360
 30
0.0
 40
200
  0
CIRCLE
  8
0
 10
370
 20
370
 30
0.0
 40
200
  0
ENDSEC
  0
EOF
