  0
SECTION
  2
ENTITIES
  0
ARC
  8
0
 10
4635.149
 20
1792.92
 30
0.0
 40
342.4378
 50
1.93014
 51
14.39421
  0
ARC
  8
0
 10
4872.899
 20
1847.82
 30
0.0
 40
98.6822
 50
17.83668
 51
83.05923
  0
ARC
  8
0
 10
4881.401
 20
2064.48
 30
0.0
 40
118.7503
 50
237.3862
 51
271.6542
  0
ARC
  8
0
 10
4717.367
 20
1900.451
 30
0.0
 40
118.7503
 50
358.3458
 51
32.61376
  0
ARC
  8
0
 10
4934.028
 20
1908.951
 30
0.0
 40
98.6822
 50
186.9408
 51
252.1633
  0
ARC
  8
0
 10
4988.93
 20
2146.693
 30
0.0
 40
342.4378
 50
255.6059
 51
268.0699
  0
ARC
  8
0
 10
4821.708
 20
1731.539
 30
0.0
 40
171.9157
 50
25.0954
 51
63.34259
  0
ARC
  8
0
 10
4821.708
 20
1731.539
 30
0.0
 40
171.9157
 50
25.0954
 51
63.34259
  0
ARC
  8
0
 10
5319.639
 20
1815.989
 30
0.0
 40
342.4378
 50
181.9302
 51
194.3942
  0
ARC
  8
0
 10
5081.889
 20
1761.08
 30
0.0
 40
98.6822
 50
197.8367
 51
263.0592
  0
ARC
  8
0
 10
5073.389
 20
1544.419
 30
0.0
 40
118.7503
 50
57.38623
 51
91.65424
  0
ARC
  8
0
 10
5237.418
 20
1708.449
 30
0.0
 40
118.7503
 50
178.3457
 51
212.6137
  0
ARC
  8
0
 10
5020.757
 20
1699.959
 30
0.0
 40
98.6822
 50
6.940776
 51
72.16335
  0
ARC
  8
0
 10
4965.869
 20
1462.21
 30
0.0
 40
342.4378
 50
75.60579
 51
88.06986
  0
ARC
  8
0
 10
5133.082
 20
1877.36
 30
0.0
 40
171.9157
 50
205.0954
 51
243.3426
  0
ARC
  8
0
 10
5133.082
 20
1877.36
 30
0.0
 40
171.9157
 50
205.0954
 51
243.3426
  0
ARC
  8
0
 10
5009.15
 20
1819.649
 30
0.0
 40
35.20168
 50
205.5846
 51
334.4154
  0
ARC
  8
0
 10
5072.65
 20
1789.25
 30
0.0
 40
35.20168
 50
25.58461
 51
154.4154
  0
ARC
  8
0
 10
5136.146
 20
1819.649
 30
0.0
 40
35.20168
 50
205.5846
 51
334.4154
  0
ARC
  8
0
 10
5199.639
 20
1789.25
 30
0.0
 40
35.20168
 50
25.58461
 51
154.4154
  0
ARC
  8
0
 10
5263.149
 20
1819.649
 30
0.0
 40
35.20168
 50
205.5846
 51
334.4154
  0
ARC
  8
0
 10
5326.651
 20
1789.25
 30
0.0
 40
35.20168
 50
25.58461
 51
154.4154
  0
ARC
  8
0
 10
5390.152
 20
1819.649
 30
0.0
 40
35.20168
 50
205.5846
 51
334.4154
  0
ARC
  8
0
 10
5453.649
 20
1789.25
 30
0.0
 40
35.20168
 50
25.58461
 51
154.4154
  0
ARC
  8
0
 10
5517.14
 20
1819.649
 30
0.0
 40
35.20168
 50
205.5846
 51
334.4154
  0
ARC
  8
0
 10
5580.65
 20
1789.25
 30
0.0
 40
35.20168
 50
25.58461
 51
154.4154
  0
ARC
  8
0
 10
5644.152
 20
1819.649
 30
0.0
 40
35.20168
 50
205.5846
 51
334.4154
  0
ARC
  8
0
 10
5707.653
 20
1789.25
 30
0.0
 40
35.20168
 50
25.58461
 51
154.4154
  0
ARC
  8
0
 10
5771.149
 20
1819.649
 30
0.0
 40
35.20168
 50
205.5846
 51
334.4154
  0
ARC
  8
0
 10
5834.642
 20
1789.25
 30
0.0
 40
35.20168
 50
25.58461
 51
154.4154
  0
ARC
  8
0
 10
5898.151
 20
1819.649
 30
0.0
 40
35.20168
 50
205.5846
 51
334.4154
  0
ARC
  8
0
 10
5961.652
 20
1789.25
 30
0.0
 40
35.20168
 50
25.58461
 51
154.4154
  0
ARC
  8
0
 10
6335.646
 20
1792.92
 30
0.0
 40
342.4378
 50
165.6058
 51
178.0699
  0
ARC
  8
0
 10
6097.896
 20
1847.82
 30
0.0
 40
98.6822
 50
96.94075
 51
162.1633
  0
ARC
  8
0
 10
6089.402
 20
2064.48
 30
0.0
 40
118.7503
 50
268.3458
 51
302.6138
  0
ARC
  8
0
 10
6253.422
 20
1900.451
 30
0.0
 40
118.7503
 50
147.3862
 51
181.6542
  0
ARC
  8
0
 10
6036.761
 20
1908.951
 30
0.0
 40
98.6822
 50
287.8367
 51
353.0593
  0
ARC
  8
0
 10
5981.865
 20
2146.693
 30
0.0
 40
342.4378
 50
271.9301
 51
284.3942
  0
ARC
  8
0
 10
5920.482
 20
1960.14
 30
0.0
 40
171.9157
 50
295.0954
 51
333.3426
  0
ARC
  8
0
 10
5920.482
 20
1960.14
 30
0.0
 40
171.9157
 50
295.0954
 51
333.3426
  0
ARC
  8
0
 10
6004.93
 20
1462.21
 30
0.0
 40
342.4378
 50
91.93012
 51
104.3942
  0
ARC
  8
0
 10
5950.034
 20
1699.959
 30
0.0
 40
98.6822
 50
107.8367
 51
173.0592
  0
ARC
  8
0
 10
5733.371
 20
1708.449
 30
0.0
 40
118.7503
 50
327.3863
 51
1.654246
  0
ARC
  8
0
 10
5897.399
 20
1544.419
 30
0.0
 40
118.7503
 50
88.34575
 51
122.6137
  0
ARC
  8
0
 10
5888.903
 20
1761.08
 30
0.0
 40
98.6822
 50
276.9408
 51
342.1633
  0
ARC
  8
0
 10
5651.149
 20
1815.989
 30
0.0
 40
342.4378
 50
345.6058
 51
358.0699
  0
ARC
  8
0
 10
6066.313
 20
1648.759
 30
0.0
 40
171.9157
 50
115.0954
 51
153.3427
  0
ARC
  8
0
 10
6066.313
 20
1648.759
 30
0.0
 40
171.9157
 50
115.0954
 51
153.3427
  0
ARC
  8
0
 10
6008.602
 20
1772.699
 30
0.0
 40
35.20168
 50
115.5846
 51
244.4155
  0
ARC
  8
0
 10
5978.193
 20
1709.199
 30
0.0
 40
35.20168
 50
295.5846
 51
64.4154
  0
ARC
  8
0
 10
6008.602
 20
1645.699
 30
0.0
 40
35.20168
 50
115.5846
 51
244.4155
  0
ARC
  8
0
 10
5978.193
 20
1582.199
 30
0.0
 40
35.20168
 50
295.5846
 51
64.4154
  0
ARC
  8
0
 10
6008.602
 20
1518.699
 30
0.0
 40
35.20168
 50
115.5846
 51
244.4155
  0
ARC
  8
0
 10
5978.193
 20
1455.199
 30
0.0
 40
35.20168
 50
295.5846
 51
64.4154
  0
ARC
  8
0
 10
6008.602
 20
1391.699
 30
0.0
 40
35.20168
 50
115.5846
 51
244.4155
  0
ARC
  8
0
 10
5978.193
 20
1328.198
 30
0.0
 40
35.20168
 50
295.5846
 51
64.4154
  0
ARC
  8
0
 10
6008.602
 20
1264.697
 30
0.0
 40
35.20168
 50
115.5846
 51
244.4155
  0
ARC
  8
0
 10
5978.193
 20
1201.198
 30
0.0
 40
35.20168
 50
295.5846
 51
64.4154
  0
ARC
  8
0
 10
6008.602
 20
1137.698
 30
0.0
 40
35.20168
 50
115.5846
 51
244.4155
  0
ARC
  8
0
 10
5978.193
 20
1074.198
 30
0.0
 40
35.20168
 50
295.5846
 51
64.4154
  0
ARC
  8
0
 10
6008.602
 20
1010.698
 30
0.0
 40
35.20168
 50
115.5846
 51
244.4155
  0
ARC
  8
0
 10
5978.193
 20
947.1964
 30
0.0
 40
35.20168
 50
295.5846
 51
64.4154
  0
ARC
  8
0
 10
6008.602
 20
883.6962
 30
0.0
 40
35.20168
 50
115.5846
 51
244.4155
  0
ARC
  8
0
 10
5978.193
 20
820.1961
 30
0.0
 40
35.20168
 50
295.5846
 51
64.4154
  0
ARC
  8
0
 10
5651.149
 20
776.916
 30
0.0
 40
342.4378
 50
1.93014
 51
14.39421
  0
ARC
  8
0
 10
5888.903
 20
831.8162
 30
0.0
 40
98.6822
 50
17.83668
 51
83.05923
  0
ARC
  8
0
 10
5897.399
 20
1048.478
 30
0.0
 40
118.7503
 50
237.3862
 51
271.6542
  0
ARC
  8
0
 10
5733.371
 20
884.4469
 30
0.0
 40
118.7503
 50
358.3458
 51
32.61376
  0
ARC
  8
0
 10
5950.034
 20
892.9469
 30
0.0
 40
98.6822
 50
186.9408
 51
252.1633
  0
ARC
  8
0
 10
6004.93
 20
1130.688
 30
0.0
 40
342.4378
 50
255.6059
 51
268.0699
  0
ARC
  8
0
 10
5837.712
 20
715.5359
 30
0.0
 40
171.9157
 50
25.0954
 51
63.34259
  0
ARC
  8
0
 10
5837.712
 20
715.5359
 30
0.0
 40
171.9157
 50
25.0954
 51
63.34259
  0
ARC
  8
0
 10
5981.865
 20
446.205
 30
0.0
 40
342.4378
 50
75.60579
 51
88.06986
  0
ARC
  8
0
 10
6036.761
 20
683.9561
 30
0.0
 40
98.6822
 50
6.940776
 51
72.16335
  0
ARC
  8
0
 10
6253.422
 20
692.446
 30
0.0
 40
118.7503
 50
178.3457
 51
212.6137
  0
ARC
  8
0
 10
6089.402
 20
528.4257
 30
0.0
 40
118.7503
 50
57.38623
 51
91.65424
  0
ARC
  8
0
 10
6097.896
 20
745.0773
 30
0.0
 40
98.6822
 50
197.8367
 51
263.0592
  0
ARC
  8
0
 10
6335.646
 20
799.9775
 30
0.0
 40
342.4378
 50
181.9302
 51
194.3942
  0
ARC
  8
0
 10
6149.083
 20
861.3562
 30
0.0
 40
171.9157
 50
205.0954
 51
243.3426
  0
ARC
  8
0
 10
6149.083
 20
861.3562
 30
0.0
 40
171.9157
 50
205.0954
 51
243.3426
  0
ARC
  8
0
 10
5961.652
 20
773.2453
 30
0.0
 40
35.20168
 50
25.58461
 51
154.4154
  0
ARC
  8
0
 10
5898.151
 20
803.6467
 30
0.0
 40
35.20168
 50
205.5846
 51
334.4154
  0
ARC
  8
0
 10
5834.642
 20
773.2453
 30
0.0
 40
35.20168
 50
25.58461
 51
154.4154
  0
ARC
  8
0
 10
5771.149
 20
803.6467
 30
0.0
 40
35.20168
 50
205.5846
 51
334.4154
  0
ARC
  8
0
 10
5707.653
 20
773.2453
 30
0.0
 40
35.20168
 50
25.58461
 51
154.4154
  0
ARC
  8
0
 10
5644.152
 20
803.6467
 30
0.0
 40
35.20168
 50
205.5846
 51
334.4154
  0
ARC
  8
0
 10
5580.65
 20
773.2453
 30
0.0
 40
35.20168
 50
25.58461
 51
154.4154
  0
ARC
  8
0
 10
5517.14
 20
803.6467
 30
0.0
 40
35.20168
 50
205.5846
 51
334.4154
  0
ARC
  8
0
 10
5453.649
 20
773.2453
 30
0.0
 40
35.20168
 50
25.58461
 51
154.4154
  0
ARC
  8
0
 10
5390.152
 20
803.6467
 30
0.0
 40
35.20168
 50
205.5846
 51
334.4154
  0
ARC
  8
0
 10
5326.651
 20
773.2453
 30
0.0
 40
35.20168
 50
25.58461
 51
154.4154
  0
ARC
  8
0
 10
5263.149
 20
803.6467
 30
0.0
 40
35.20168
 50
205.5846
 51
334.4154
  0
ARC
  8
0
 10
5199.639
 20
773.2453
 30
0.0
 40
35.20168
 50
25.58461
 51
154.4154
  0
ARC
  8
0
 10
5136.146
 20
803.6467
 30
0.0
 40
35.20168
 50
205.5846
 51
334.4154
  0
ARC
  8
0
 10
5072.65
 20
773.2453
 30
0.0
 40
35.20168
 50
25.58461
 51
154.4154
  0
ARC
  8
0
 10
5009.15
 20
803.6467
 30
0.0
 40
35.20168
 50
205.5846
 51
334.4154
  0
ARC
  8
0
 10
4965.869
 20
1130.688
 30
0.0
 40
342.4378
 50
271.9301
 51
284.3942
  0
ARC
  8
0
 10
5020.757
 20
892.9469
 30
0.0
 40
98.6822
 50
287.8367
 51
353.0593
  0
ARC
  8
0
 10
5237.418
 20
884.4469
 30
0.0
 40
118.7503
 50
147.3862
 51
181.6542
  0
ARC
  8
0
 10
5073.389
 20
1048.478
 30
0.0
 40
118.7503
 50
268.3458
 51
302.6138
  0
ARC
  8
0
 10
5081.889
 20
831.8162
 30
0.0
 40
98.6822
 50
96.94075
 51
162.1633
  0
ARC
  8
0
 10
5319.639
 20
776.916
 30
0.0
 40
342.4378
 50
165.6058
 51
178.0699
  0
ARC
  8
0
 10
4904.477
 20
944.1378
 30
0.0
 40
171.9157
 50
295.0954
 51
333.3426
  0
ARC
  8
0
 10
4904.477
 20
944.1378
 30
0.0
 40
171.9157
 50
295.0954
 51
333.3426
  0
ARC
  8
0
 10
4988.93
 20
446.205
 30
0.0
 40
342.4378
 50
91.93012
 51
104.3942
  0
ARC
  8
0
 10
4934.028
 20
683.9561
 30
0.0
 40
98.6822
 50
107.8367
 51
173.0592
  0
ARC
  8
0
 10
4717.367
 20
692.446
 30
0.0
 40
118.7503
 50
327.3863
 51
1.654246
  0
ARC
  8
0
 10
4881.401
 20
528.4257
 30
0.0
 40
118.7503
 50
88.34575
 51
122.6137
  0
ARC
  8
0
 10
4872.899
 20
745.0773
 30
0.0
 40
98.6822
 50
276.9408
 51
342.1633
  0
ARC
  8
0
 10
4635.149
 20
799.9775
 30
0.0
 40
342.4378
 50
345.6058
 51
358.0699
  0
ARC
  8
0
 10
5050.308
 20
632.756
 30
0.0
 40
171.9157
 50
115.0954
 51
153.3427
  0
ARC
  8
0
 10
5050.308
 20
632.756
 30
0.0
 40
171.9157
 50
115.0954
 51
153.3427
  0
ARC
  8
0
 10
4992.597
 20
756.6973
 30
0.0
 40
35.20168
 50
115.5846
 51
244.4155
  0
ARC
  8
0
 10
4962.188
 20
693.197
 30
0.0
 40
35.20168
 50
295.5846
 51
64.4154
  0
ARC
  8
0
 10
4992.597
 20
629.6956
 30
0.0
 40
35.20168
 50
115.5846
 51
244.4155
  0
ARC
  8
0
 10
4962.188
 20
566.1956
 30
0.0
 40
35.20168
 50
295.5846
 51
64.4154
  0
ARC
  8
0
 10
4992.597
 20
502.6957
 30
0.0
 40
35.20168
 50
115.5846
 51
244.4155
  0
ARC
  8
0
 10
4962.188
 20
439.1957
 30
0.0
 40
35.20168
 50
295.5846
 51
64.4154
  0
ARC
  8
0
 10
4992.597
 20
375.6957
 30
0.0
 40
35.20168
 50
115.5846
 51
244.4155
  0
ARC
  8
0
 10
4962.188
 20
312.1945
 30
0.0
 40
35.20168
 50
295.5846
 51
64.4154
  0
ARC
  8
0
 10
4992.597
 20
248.6946
 30
0.0
 40
35.20168
 50
115.5846
 51
244.4155
  0
ARC
  8
0
 10
4962.188
 20
185.1944
 30
0.0
 40
35.20168
 50
295.5846
 51
64.4154
  0
ARC
  8
0
 10
4992.597
 20
121.6947
 30
0.0
 40
35.20168
 50
115.5846
 51
244.4155
  0
ARC
  8
0
 10
4962.188
 20
58.19456
 30
0.0
 40
35.20168
 50
295.5846
 51
64.4154
  0
ARC
  8
0
 10
4992.597
 20
-5.306644
 30
0.0
 40
35.20168
 50
115.5846
 51
244.4155
  0
ARC
  8
0
 10
4962.188
 20
-68.80663
 30
0.0
 40
35.20168
 50
295.5846
 51
64.4154
  0
ARC
  8
0
 10
4992.597
 20
-132.3065
 30
0.0
 40
35.20168
 50
115.5846
 51
244.4155
  0
ARC
  8
0
 10
4962.188
 20
-195.8065
 30
0.0
 40
35.20168
 50
295.5846
 51
64.4154
  0
CIRCLE
  8
0
 10
1000
 20
7000
 30
0.0
 40
100
  0
CIRCLE
  8
0
 10
3000
 20
7000
 30
0.0
 40
100
  0
CIRCLE
  8
0
 10
100
 20
100
 30
0.0
 40
125
  0
CIRCLE
  8
0
 10
200
 20
200
 30
0.0
 40
200
  0
CIRCLE
  8
0
 10
300
 20
300
 30
0.0
 40
200
  0
CIRCLE
  8
0
 10
350
 20
350
 30
0.0
 40
200
  0
CIRCLE
  8
0
 10
360
 20
360
 30
0.0
 40
200
  0
CIRCLE
  8
0
 10
370
 20
370
 30
0.0
 40
200
  0
ENDSEC
  0
EOF
