  0
SECTION
  2
ENTITIES
  0
LINE
  8
0
 10
145.1429
 20
1016
 30
0.0
 11
145.1429
 21
907.1428
 31
0.0
  0
LINE
  8
0
 10
145.1429
 20
907.1428
 30
0.0
 11
145.1429
 21
798.2856
 31
0.0
  0
LINE
  8
0
 10
145.1429
 20
798.2856
 30
0.0
 11
145.1429
 21
689.4285
 31
0.0
  0
LINE
  8
0
 10
145.1429
 20
689.4285
 30
0.0
 11
145.1429
 21
580.5713
 31
0.0
  0
LINE
  8
0
 10
145.1429
 20
580.5713
 30
0.0
 11
145.1429
 21
471.7141
 31
0.0
  0
LINE
  8
0
 10
145.1429
 20
471.7141
 30
0.0
 11
145.1429
 21
362.8569
 31
0.0
  0
LINE
  8
0
 10
145.1429
 20
362.8569
 30
0.0
 11
145.1429
 21
253.9997
 31
0.0
  0
LINE
  8
0
 10
145.1429
 20
253.9997
 30
0.0
 11
145.1429
 21
145.1426
 31
0.0
  0
LINE
  8
0
 10
145.1429
 20
145.1426
 30
0.0
 11
145.1429
 21
36.28527
 31
0.0
  0
LINE
  8
0
 10
145.1429
 20
36.28527
 30
0.0
 11
145.1429
 21
-72.57183
 31
0.0
  0
LINE
  8
0
 10
145.1429
 20
-72.57183
 30
0.0
 11
145.1429
 21
-181.429
 31
0.0
  0
LINE
  8
0
 10
145.1429
 20
-181.429
 30
0.0
 11
145.1429
 21
-290.2861
 31
0.0
  0
LINE
  8
0
 10
145.1429
 20
-290.2861
 30
0.0
 11
36.28565
 21
-399.1434
 31
0.0
  0
LINE
  8
0
 10
36.28565
 20
-399.1434
 30
0.0
 11
-72.57153
 21
-290.2861
 31
0.0
  0
LINE
  8
0
 10
-72.57153
 20
-290.2861
 30
0.0
 11
-72.57153
 21
1016
 31
0.0
  0
LINE
  8
0
 10
-72.57153
 20
1016
 30
0.0
 11
36.28565
 21
1124.857
 31
0.0
  0
LINE
  8
0
 10
36.28565
 20
1124.857
 30
0.0
 11
36.28565
 21
1016
 31
0.0
  0
LINE
  8
0
 10
36.28565
 20
1016
 30
0.0
 11
36.28565
 21
-290.2861
 31
0.0
  0
LINE
  8
0
 10
36.28565
 20
-290.2861
 30
0.0
 11
36.28565
 21
-399.1434
 31
0.0
  0
LINE
  8
0
 10
36.28565
 20
-399.1434
 30
0.0
 11
-72.57153
 21
-290.2861
 31
0.0
  0
LINE
  8
0
 10
-72.57153
 20
-290.2861
 30
0.0
 11
-1378.858
 21
-290.2861
 31
0.0
  0
LINE
  8
0
 10
-1378.858
 20
-290.2861
 30
0.0
 11
-1487.715
 21
-399.1434
 31
0.0
  0
LINE
  8
0
 10
-1487.715
 20
-399.1434
 30
0.0
 11
-1378.858
 21
-399.1434
 31
0.0
  0
LINE
  8
0
 10
-1378.858
 20
-399.1434
 30
0.0
 11
-72.57153
 21
-399.1434
 31
0.0
  0
LINE
  8
0
 10
-72.57153
 20
-399.1434
 30
0.0
 11
36.28565
 21
-399.1434
 31
0.0
  0
LINE
  8
0
 10
36.28565
 20
-399.1434
 30
0.0
 11
-72.57153
 21
-508.0005
 31
0.0
  0
LINE
  8
0
 10
-72.57153
 20
-508.0005
 30
0.0
 11
-181.4287
 21
-508.0005
 31
0.0
  0
LINE
  8
0
 10
-181.4287
 20
-508.0005
 30
0.0
 11
-290.2859
 21
-508.0005
 31
0.0
  0
LINE
  8
0
 10
-290.2859
 20
-508.0005
 30
0.0
 11
-399.1431
 21
-508.0005
 31
0.0
  0
LINE
  8
0
 10
-399.1431
 20
-508.0005
 30
0.0
 11
-508.0002
 21
-508.0005
 31
0.0
  0
LINE
  8
0
 10
-508.0002
 20
-508.0005
 30
0.0
 11
-616.8574
 21
-508.0005
 31
0.0
  0
LINE
  8
0
 10
-616.8574
 20
-508.0005
 30
0.0
 11
-725.7147
 21
-508.0005
 31
0.0
  0
LINE
  8
0
 10
-725.7147
 20
-508.0005
 30
0.0
 11
-834.5718
 21
-508.0005
 31
0.0
  0
LINE
  8
0
 10
-834.5718
 20
-508.0005
 30
0.0
 11
-943.429
 21
-508.0005
 31
0.0
  0
LINE
  8
0
 10
-943.429
 20
-508.0005
 30
0.0
 11
-1052.286
 21
-508.0005
 31
0.0
  0
LINE
  8
0
 10
-1052.286
 20
-508.0005
 30
0.0
 11
-1161.143
 21
-508.0005
 31
0.0
  0
LINE
  8
0
 10
-1161.143
 20
-508.0005
 30
0.0
 11
-1270
 21
-508.0005
 31
0.0
  0
LINE
  8
0
 10
-1270
 20
-508.0005
 30
0.0
 11
-1378.858
 21
-508.0005
 31
0.0
  0
LINE
  8
0
 10
-1378.858
 20
-508.0005
 30
0.0
 11
-1487.715
 21
-399.1434
 31
0.0
  0
LINE
  8
0
 10
-1487.715
 20
-399.1434
 30
0.0
 11
-1378.858
 21
-508.0005
 31
0.0
  0
LINE
  8
0
 10
-1378.858
 20
-508.0005
 30
0.0
 11
-1378.858
 21
-616.8577
 31
0.0
  0
LINE
  8
0
 10
-1378.858
 20
-616.8577
 30
0.0
 11
-1378.858
 21
-725.715
 31
0.0
  0
LINE
  8
0
 10
-1378.858
 20
-725.715
 30
0.0
 11
-1378.858
 21
-834.5721
 31
0.0
  0
LINE
  8
0
 10
-1378.858
 20
-834.5721
 30
0.0
 11
-1378.858
 21
-943.4293
 31
0.0
  0
LINE
  8
0
 10
-1378.858
 20
-943.4293
 30
0.0
 11
-1378.858
 21
-1052.286
 31
0.0
  0
LINE
  8
0
 10
-1378.858
 20
-1052.286
 30
0.0
 11
-1378.858
 21
-1161.144
 31
0.0
  0
LINE
  8
0
 10
-1378.858
 20
-1161.144
 30
0.0
 11
-1378.858
 21
-1270.001
 31
0.0
  0
LINE
  8
0
 10
-1378.858
 20
-1270.001
 30
0.0
 11
-1378.858
 21
-1378.858
 31
0.0
  0
LINE
  8
0
 10
-1378.858
 20
-1378.858
 30
0.0
 11
-1378.858
 21
-1487.715
 31
0.0
  0
LINE
  8
0
 10
-1378.858
 20
-1487.715
 30
0.0
 11
-1378.858
 21
-1596.572
 31
0.0
  0
LINE
  8
0
 10
-1378.858
 20
-1596.572
 30
0.0
 11
-1378.858
 21
-1705.43
 31
0.0
  0
LINE
  8
0
 10
-1378.858
 20
-1705.43
 30
0.0
 11
-1378.858
 21
-1814.287
 31
0.0
  0
LINE
  8
0
 10
-1378.858
 20
-1814.287
 30
0.0
 11
-1487.715
 21
-1923.144
 31
0.0
  0
LINE
  8
0
 10
-1487.715
 20
-1923.144
 30
0.0
 11
-1596.572
 21
-1814.287
 31
0.0
  0
LINE
  8
0
 10
-1596.572
 20
-1814.287
 30
0.0
 11
-1596.572
 21
-508.0005
 31
0.0
  0
LINE
  8
0
 10
-1596.572
 20
-508.0005
 30
0.0
 11
-1487.715
 21
-399.1434
 31
0.0
  0
LINE
  8
0
 10
-1487.715
 20
-399.1434
 30
0.0
 11
-1487.715
 21
-508.0005
 31
0.0
  0
LINE
  8
0
 10
-1487.715
 20
-508.0005
 30
0.0
 11
-1487.715
 21
-1814.287
 31
0.0
  0
LINE
  8
0
 10
-1487.715
 20
-1814.287
 30
0.0
 11
-1487.715
 21
-1923.144
 31
0.0
  0
LINE
  8
0
 10
-1487.715
 20
-1923.144
 30
0.0
 11
-1378.858
 21
-1814.287
 31
0.0
  0
LINE
  8
0
 10
-1378.858
 20
-1814.287
 30
0.0
 11
-72.57153
 21
-1814.287
 31
0.0
  0
LINE
  8
0
 10
-72.57153
 20
-1814.287
 30
0.0
 11
36.28565
 21
-1923.144
 31
0.0
  0
LINE
  8
0
 10
36.28565
 20
-1923.144
 30
0.0
 11
-72.57153
 21
-1923.144
 31
0.0
  0
LINE
  8
0
 10
-72.57153
 20
-1923.144
 30
0.0
 11
-1378.858
 21
-1923.144
 31
0.0
  0
LINE
  8
0
 10
-1378.858
 20
-1923.144
 30
0.0
 11
-1487.715
 21
-1923.144
 31
0.0
  0
LINE
  8
0
 10
-1487.715
 20
-1923.144
 30
0.0
 11
-1378.858
 21
-2032.001
 31
0.0
  0
LINE
  8
0
 10
-1378.858
 20
-2032.001
 30
0.0
 11
-1270
 21
-2032.001
 31
0.0
  0
LINE
  8
0
 10
-1270
 20
-2032.001
 30
0.0
 11
-1161.143
 21
-2032.001
 31
0.0
  0
LINE
  8
0
 10
-1161.143
 20
-2032.001
 30
0.0
 11
-1052.286
 21
-2032.001
 31
0.0
  0
LINE
  8
0
 10
-1052.286
 20
-2032.001
 30
0.0
 11
-943.429
 21
-2032.001
 31
0.0
  0
LINE
  8
0
 10
-943.429
 20
-2032.001
 30
0.0
 11
-834.5718
 21
-2032.001
 31
0.0
  0
LINE
  8
0
 10
-834.5718
 20
-2032.001
 30
0.0
 11
-725.7147
 21
-2032.001
 31
0.0
  0
LINE
  8
0
 10
-725.7147
 20
-2032.001
 30
0.0
 11
-616.8574
 21
-2032.001
 31
0.0
  0
LINE
  8
0
 10
-616.8574
 20
-2032.001
 30
0.0
 11
-508.0002
 21
-2032.001
 31
0.0
  0
LINE
  8
0
 10
-508.0002
 20
-2032.001
 30
0.0
 11
-399.1431
 21
-2032.001
 31
0.0
  0
LINE
  8
0
 10
-399.1431
 20
-2032.001
 30
0.0
 11
-290.2859
 21
-2032.001
 31
0.0
  0
LINE
  8
0
 10
-290.2859
 20
-2032.001
 30
0.0
 11
-181.4287
 21
-2032.001
 31
0.0
  0
LINE
  8
0
 10
-181.4287
 20
-2032.001
 30
0.0
 11
-72.57153
 21
-2032.001
 31
0.0
  0
LINE
  8
0
 10
-72.57153
 20
-2032.001
 30
0.0
 11
36.28565
 21
-1923.144
 31
0.0
  0
LINE
  8
0
 10
36.28565
 20
-1923.144
 30
0.0
 11
145.1429
 21
-2032.001
 31
0.0
  0
CIRCLE
  8
0
 10
1000
 20
7000
 30
0.0
 40
100
  0
CIRCLE
  8
0
 10
4000
 20
7000
 30
0.0
 40
100
  0
CIRCLE
  8
0
 10
100
 20
100
 30
0.0
 40
125
  0
CIRCLE
  8
0
 10
200
 20
200
 30
0.0
 40
200
  0
CIRCLE
  8
0
 10
300
 20
300
 30
0.0
 40
200
  0
CIRCLE
  8
0
 10
350
 20
350
 30
0.0
 40
200
  0
CIRCLE
  8
0
 10
360
 20
360
 30
0.0
 40
200
  0
CIRCLE
  8
0
 10
370
 20
370
 30
0.0
 40
200
  0
ENDSEC
  0
EOF
