  0
SECTION
  2
ENTITIES
  0
LINE
  8
0
 10
5171.875
 20
2625.995
 30
0.0
 11
4917.876
 21
2371.995
 31
0.0
  0
LINE
  8
0
 10
4917.876
 20
2371.995
 30
0.0
 11
5171.875
 21
2117.995
 31
0.0
  0
LINE
  8
0
 10
5171.875
 20
2117.995
 30
0.0
 11
5108.389
 21
2054.496
 31
0.0
  0
LINE
  8
0
 10
5108.389
 20
2054.496
 30
0.0
 11
4917.876
 21
2244.996
 31
0.0
  0
LINE
  8
0
 10
4917.876
 20
2244.996
 30
0.0
 11
5108.389
 21
2435.495
 31
0.0
  0
LINE
  8
0
 10
5108.389
 20
2435.495
 30
0.0
 11
5171.875
 21
2371.995
 31
0.0
  0
LINE
  8
0
 10
5171.875
 20
2371.995
 30
0.0
 11
4917.876
 21
2117.995
 31
0.0
  0
LINE
  8
0
 10
4917.876
 20
2117.995
 30
0.0
 11
5108.389
 21
1927.496
 31
0.0
  0
LINE
  8
0
 10
5108.389
 20
1927.496
 30
0.0
 11
5044.887
 21
1863.995
 31
0.0
  0
LINE
  8
0
 10
5044.887
 20
1863.995
 30
0.0
 11
5171.875
 21
1736.996
 31
0.0
  0
LINE
  8
0
 10
5171.875
 20
1736.996
 30
0.0
 11
5108.389
 21
1673.496
 31
0.0
  0
LINE
  8
0
 10
5108.389
 20
1673.496
 30
0.0
 11
4981.387
 21
1800.496
 31
0.0
  0
LINE
  8
0
 10
4981.387
 20
1800.496
 30
0.0
 11
4917.876
 21
1736.996
 31
0.0
  0
LINE
  8
0
 10
4917.876
 20
1736.996
 30
0.0
 11
5171.875
 21
1482.996
 31
0.0
  0
LINE
  8
0
 10
5171.875
 20
1482.996
 30
0.0
 11
4917.876
 21
1228.996
 31
0.0
  0
LINE
  8
0
 10
4917.876
 20
1228.996
 30
0.0
 11
5044.887
 21
1101.997
 31
0.0
  0
LINE
  8
0
 10
5044.887
 20
1101.997
 30
0.0
 11
4981.387
 21
1038.497
 31
0.0
  0
LINE
  8
0
 10
4981.387
 20
1038.497
 30
0.0
 11
4917.876
 21
1101.997
 31
0.0
  0
LINE
  8
0
 10
4917.876
 20
1101.997
 30
0.0
 11
5108.389
 21
1292.497
 31
0.0
  0
LINE
  8
0
 10
5108.389
 20
1292.497
 30
0.0
 11
5171.875
 21
1228.996
 31
0.0
  0
LINE
  8
0
 10
5171.875
 20
1228.996
 30
0.0
 11
5108.375
 21
1165.496
 31
0.0
  0
LINE
  8
0
 10
5108.375
 20
1165.496
 30
0.0
 11
5171.861
 21
1101.995
 31
0.0
  0
CIRCLE
  8
0
 10
1000
 20
7000
 30
0.0
 40
100
  0
CIRCLE
  8
0
 10
1000
 20
8000
 30
0.0
 40
100
  0
CIRCLE
  8
0
 10
1500
 20
7000
 30
0.0
 40
100
  0
CIRCLE
  8
0
 10
1500
 20
8000
 30
0.0
 40
100
  0
CIRCLE
  8
0
 10
100
 20
100
 30
0.0
 40
125
  0
CIRCLE
  8
0
 10
200
 20
200
 30
0.0
 40
200
  0
CIRCLE
  8
0
 10
300
 20
300
 30
0.0
 40
200
  0
CIRCLE
  8
0
 10
350
 20
350
 30
0.0
 40
200
  0
CIRCLE
  8
0
 10
360
 20
360
 30
0.0
 40
200
  0
CIRCLE
  8
0
 10
370
 20
370
 30
0.0
 40
200
  0
ENDSEC
  0
EOF
