  0
SECTION
  2
ENTITIES
  0
LINE
  8
0
 10
5086.273
 20
1688.179
 30
0.0
 11
4832.284
 21
1434.179
 31
0.0
  0
LINE
  8
0
 10
4832.284
 20
1434.179
 30
0.0
 11
4874.696
 21
1434.179
 31
0.0
  0
LINE
  8
0
 10
4874.696
 20
1434.179
 30
0.0
 11
4959.286
 21
1518.759
 31
0.0
  0
LINE
  8
0
 10
4959.286
 20
1518.759
 30
0.0
 11
5043.866
 21
1434.179
 31
0.0
  0
LINE
  8
0
 10
5043.866
 20
1434.179
 30
0.0
 11
4959.286
 21
1349.589
 31
0.0
  0
LINE
  8
0
 10
4959.286
 20
1349.589
 30
0.0
 11
4874.696
 21
1434.179
 31
0.0
  0
LINE
  8
0
 10
4874.696
 20
1434.179
 30
0.0
 11
4917.103
 21
1434.179
 31
0.0
  0
LINE
  8
0
 10
4917.103
 20
1434.179
 30
0.0
 11
4959.286
 21
1476.349
 31
0.0
  0
LINE
  8
0
 10
4959.286
 20
1476.349
 30
0.0
 11
5001.454
 21
1434.179
 31
0.0
  0
LINE
  8
0
 10
5001.454
 20
1434.179
 30
0.0
 11
4959.286
 21
1391.999
 31
0.0
  0
LINE
  8
0
 10
4959.286
 20
1391.999
 30
0.0
 11
4917.103
 21
1434.179
 31
0.0
  0
LINE
  8
0
 10
4917.103
 20
1434.179
 30
0.0
 11
4874.696
 21
1434.179
 31
0.0
  0
LINE
  8
0
 10
4874.696
 20
1434.179
 30
0.0
 11
4832.284
 21
1434.179
 31
0.0
  0
LINE
  8
0
 10
4832.284
 20
1434.179
 30
0.0
 11
5086.273
 21
1180.179
 31
0.0
  0
CIRCLE
  8
0
 10
1000
 20
7000
 30
0.0
 40
100
  0
CIRCLE
  8
0
 10
1000
 20
8000
 30
0.0
 40
100
  0
CIRCLE
  8
0
 10
1500
 20
7000
 30
0.0
 40
100
  0
CIRCLE
  8
0
 10
1500
 20
8000
 30
0.0
 40
100
  0
CIRCLE
  8
0
 10
100
 20
100
 30
0.0
 40
125
  0
CIRCLE
  8
0
 10
200
 20
200
 30
0.0
 40
200
  0
CIRCLE
  8
0
 10
300
 20
300
 30
0.0
 40
200
  0
CIRCLE
  8
0
 10
350
 20
350
 30
0.0
 40
200
  0
CIRCLE
  8
0
 10
360
 20
360
 30
0.0
 40
200
  0
CIRCLE
  8
0
 10
370
 20
370
 30
0.0
 40
200
  0
ENDSEC
  0
EOF
