  0
SECTION
  2
ENTITIES
  0
LINE
  8
0
 10
4204.435
 20
1548.955
 30
0.0
 11
4585.436
 21
1548.955
 31
0.0
  0
ARC
  8
0
 10
4585.436
 20
1167.955
 30
0.0
 40
381.0002
 50
89.99999
 51
180
  0
ARC
  8
0
 10
4585.436
 20
1167.955
 30
0.0
 40
381.0002
 50
180
 51
270
  0
ARC
  8
0
 10
4585.436
 20
1167.955
 30
0.0
 40
381.0002
 50
270
 51
0
  0
ARC
  8
0
 10
4585.436
 20
1167.955
 30
0.0
 40
381.0002
 50
0
 51
89.99999
  0
LINE
  8
0
 10
4585.436
 20
1548.955
 30
0.0
 11
4966.437
 21
1548.955
 31
0.0
  0
LINE
  8
0
 10
4966.437
 20
1548.955
 30
0.0
 11
4966.437
 21
786.955
 31
0.0
  0
LINE
  8
0
 10
4966.437
 20
786.955
 30
0.0
 11
4585.436
 21
786.955
 31
0.0
  0
ARC
  8
0
 10
4585.436
 20
405.955
 30
0.0
 40
381.0002
 50
89.99999
 51
180
  0
ARC
  8
0
 10
4585.436
 20
405.955
 30
0.0
 40
381.0002
 50
180
 51
270
  0
ARC
  8
0
 10
4585.436
 20
405.955
 30
0.0
 40
381.0002
 50
270
 51
0
  0
ARC
  8
0
 10
4585.436
 20
405.955
 30
0.0
 40
381.0002
 50
0
 51
89.99999
  0
LINE
  8
0
 10
4585.436
 20
786.955
 30
0.0
 11
4204.435
 21
786.955
 31
0.0
  0
LINE
  8
0
 10
4204.435
 20
786.955
 30
0.0
 11
4204.435
 21
24.95498
 31
0.0
  0
CIRCLE
  8
0
 10
1000
 20
7000
 30
0.0
 40
100
  0
CIRCLE
  8
0
 10
2500
 20
7000
 30
0.0
 40
100
  0
CIRCLE
  8
0
 10
4000
 20
7000
 30
0.0
 40
100
  0
CIRCLE
  8
0
 10
100
 20
100
 30
0.0
 40
125
  0
CIRCLE
  8
0
 10
200
 20
200
 30
0.0
 40
200
  0
CIRCLE
  8
0
 10
300
 20
300
 30
0.0
 40
200
  0
CIRCLE
  8
0
 10
350
 20
350
 30
0.0
 40
200
  0
CIRCLE
  8
0
 10
360
 20
360
 30
0.0
 40
200
  0
CIRCLE
  8
0
 10
370
 20
370
 30
0.0
 40
200
  0
ENDSEC
  0
EOF
