  0
SECTION
  2
ENTITIES
  0
LINE
  8
0
 10
0
 20
571.5
 30
0.0
 11
190.5
 21
381
 31
0.0
  0
LINE
  8
0
 10
190.5
 20
381
 30
0.0
 11
0
 21
190.5
 31
0.0
  0
LINE
  8
0
 10
0
 20
190.5
 30
0.0
 11
190.5
 21
0
 31
0.0
  0
LINE
  8
0
 10
190.5
 20
0
 30
0.0
 11
381
 21
-190.5
 31
0.0
  0
LINE
  8
0
 10
381
 20
-190.5
 30
0.0
 11
571.5
 21
0
 31
0.0
  0
LINE
  8
0
 10
571.5
 20
0
 30
0.0
 11
762
 21
190.5
 31
0.0
  0
LINE
  8
0
 10
762
 20
190.5
 30
0.0
 11
571.5
 21
381
 31
0.0
  0
LINE
  8
0
 10
571.5
 20
381
 30
0.0
 11
381
 21
571.5
 31
0.0
  0
LINE
  8
0
 10
381
 20
571.5
 30
0.0
 11
190.5
 21
381
 31
0.0
  0
LINE
  8
0
 10
190.5
 20
381
 30
0.0
 11
381
 21
190.5
 31
0.0
  0
LINE
  8
0
 10
381
 20
190.5
 30
0.0
 11
571.5
 21
0
 31
0.0
  0
LINE
  8
0
 10
571.5
 20
0
 30
0.0
 11
762
 21
-190.5
 31
0.0
  0
LINE
  8
0
 10
762
 20
-190.5
 30
0.0
 11
571.5
 21
-381
 31
0.0
  0
LINE
  8
0
 10
571.5
 20
-381
 30
0.0
 11
381
 21
-571.5
 31
0.0
  0
LINE
  8
0
 10
381
 20
-571.5
 30
0.0
 11
190.5
 21
-762
 31
0.0
  0
LINE
  8
0
 10
190.5
 20
-762
 30
0.0
 11
0
 21
-952.5
 31
0.0
  0
CIRCLE
  8
0
 10
1000
 20
7000
 30
0.0
 40
100
  0
CIRCLE
  8
0
 10
1000
 20
8000
 30
0.0
 40
100
  0
CIRCLE
  8
0
 10
2500
 20
7000
 30
0.0
 40
100
  0
CIRCLE
  8
0
 10
2500
 20
8000
 30
0.0
 40
100
  0
CIRCLE
  8
0
 10
100
 20
100
 30
0.0
 40
125
  0
CIRCLE
  8
0
 10
200
 20
200
 30
0.0
 40
200
  0
CIRCLE
  8
0
 10
300
 20
300
 30
0.0
 40
200
  0
CIRCLE
  8
0
 10
350
 20
350
 30
0.0
 40
200
  0
CIRCLE
  8
0
 10
360
 20
360
 30
0.0
 40
200
  0
CIRCLE
  8
0
 10
370
 20
370
 30
0.0
 40
200
  0
ENDSEC
  0
EOF
