  0
SECTION
  2
ENTITIES
  0
ARC
  8
0
 10
5093.547
 20
2668.807
 30
0.0
 40
28.17642
 50
162.8728
 51
287.1273
  0
ARC
  8
0
 10
5110.349
 20
2615.806
 30
0.0
 40
27.42668
 50
341.942
 51
108.058
  0
ARC
  8
0
 10
5162.498
 20
2598.796
 30
0.0
 40
27.42668
 50
161.942
 51
288.058
  0
ARC
  8
0
 10
5179.5
 20
2546.646
 30
0.0
 40
27.42668
 50
341.942
 51
108.058
  0
ARC
  8
0
 10
5231.658
 20
2529.647
 30
0.0
 40
27.42668
 50
161.942
 51
288.058
  0
ARC
  8
0
 10
5248.66
 20
2477.487
 30
0.0
 40
27.42668
 50
341.942
 51
108.058
  0
ARC
  8
0
 10
5300.808
 20
2460.487
 30
0.0
 40
27.42668
 50
161.942
 51
288.058
  0
ARC
  8
0
 10
5317.819
 20
2408.337
 30
0.0
 40
27.42668
 50
341.942
 51
108.058
  0
ARC
  8
0
 10
5369.968
 20
2391.337
 30
0.0
 40
27.42668
 50
161.942
 51
288.058
  0
ARC
  8
0
 10
5386.97
 20
2339.177
 30
0.0
 40
27.42668
 50
341.942
 51
108.058
  0
ARC
  8
0
 10
5439.118
 20
2322.177
 30
0.0
 40
27.42668
 50
161.942
 51
288.058
  0
ARC
  8
0
 10
5421.55
 20
2287.597
 30
0.0
 40
27.42668
 50
251.942
 51
18.05798
  0
ARC
  8
0
 10
5404.538
 20
2235.447
 30
0.0
 40
27.42668
 50
71.94202
 51
198.058
  0
ARC
  8
0
 10
5352.399
 20
2218.448
 30
0.0
 40
27.42668
 50
251.942
 51
18.05798
  0
ARC
  8
0
 10
5335.388
 20
2166.297
 30
0.0
 40
27.42668
 50
71.94202
 51
198.058
  0
ARC
  8
0
 10
5283.239
 20
2149.288
 30
0.0
 40
27.42668
 50
251.942
 51
18.05798
  0
ARC
  8
0
 10
5266.228
 20
2097.137
 30
0.0
 40
27.42668
 50
71.94202
 51
198.058
  0
ARC
  8
0
 10
5214.08
 20
2080.138
 30
0.0
 40
27.42668
 50
251.942
 51
18.05798
  0
ARC
  8
0
 10
5197.078
 20
2027.988
 30
0.0
 40
27.42668
 50
71.94202
 51
198.058
  0
ARC
  8
0
 10
5144.929
 20
2010.978
 30
0.0
 40
27.42668
 50
251.942
 51
18.05798
  0
ARC
  8
0
 10
5127.917
 20
1958.828
 30
0.0
 40
27.42668
 50
71.94202
 51
198.058
  0
ARC
  8
0
 10
5074.92
 20
1942.028
 30
0.0
 40
28.17642
 50
252.8728
 51
17.12726
  0
ARC
  8
0
 10
5040.55
 20
1906.598
 30
0.0
 40
27.42668
 50
251.942
 51
18.05798
  0
ARC
  8
0
 10
5023.548
 20
1854.449
 30
0.0
 40
27.42668
 50
71.94202
 51
198.058
  0
ARC
  8
0
 10
4971.39
 20
1837.448
 30
0.0
 40
27.42668
 50
251.942
 51
18.05798
  0
ARC
  8
0
 10
4954.388
 20
1785.298
 30
0.0
 40
27.42668
 50
71.94202
 51
198.058
  0
ARC
  8
0
 10
4902.24
 20
1768.289
 30
0.0
 40
27.42668
 50
251.942
 51
18.05798
  0
ARC
  8
0
 10
4885.243
 20
1716.138
 30
0.0
 40
27.42668
 50
71.94202
 51
198.058
  0
ARC
  8
0
 10
4833.08
 20
1699.139
 30
0.0
 40
27.42668
 50
251.942
 51
18.05798
  0
ARC
  8
0
 10
4816.083
 20
1646.989
 30
0.0
 40
27.42668
 50
71.94202
 51
198.058
  0
ARC
  8
0
 10
4763.929
 20
1629.979
 30
0.0
 40
27.42668
 50
251.942
 51
18.05798
  0
ARC
  8
0
 10
4746.932
 20
1577.829
 30
0.0
 40
27.42668
 50
71.94202
 51
198.058
  0
ARC
  8
0
 10
4693.92
 20
1561.029
 30
0.0
 40
28.17642
 50
252.8728
 51
17.12726
  0
ARC
  8
0
 10
4712.553
 20
1525.809
 30
0.0
 40
28.17642
 50
162.8728
 51
287.1273
  0
ARC
  8
0
 10
4729.349
 20
1472.799
 30
0.0
 40
27.42668
 50
341.942
 51
108.058
  0
ARC
  8
0
 10
4781.502
 20
1455.8
 30
0.0
 40
27.42668
 50
161.942
 51
288.058
  0
ARC
  8
0
 10
4798.5
 20
1403.649
 30
0.0
 40
27.42668
 50
341.942
 51
108.058
  0
ARC
  8
0
 10
4850.663
 20
1386.649
 30
0.0
 40
27.42668
 50
161.942
 51
288.058
  0
ARC
  8
0
 10
4867.66
 20
1334.49
 30
0.0
 40
27.42668
 50
341.942
 51
108.058
  0
ARC
  8
0
 10
4919.808
 20
1317.49
 30
0.0
 40
27.42668
 50
161.942
 51
288.058
  0
ARC
  8
0
 10
4936.81
 20
1265.34
 30
0.0
 40
27.42668
 50
341.942
 51
108.058
  0
ARC
  8
0
 10
4988.968
 20
1248.34
 30
0.0
 40
27.42668
 50
161.942
 51
288.058
  0
ARC
  8
0
 10
5005.97
 20
1196.18
 30
0.0
 40
27.42668
 50
341.942
 51
108.058
  0
ARC
  8
0
 10
5058.118
 20
1179.181
 30
0.0
 40
27.42668
 50
161.942
 51
288.058
  0
CIRCLE
  8
0
 10
1000
 20
7000
 30
0.0
 40
100
  0
CIRCLE
  8
0
 10
1000
 20
8000
 30
0.0
 40
100
  0
CIRCLE
  8
0
 10
2500
 20
7000
 30
0.0
 40
100
  0
CIRCLE
  8
0
 10
2500
 20
8000
 30
0.0
 40
100
  0
CIRCLE
  8
0
 10
100
 20
100
 30
0.0
 40
125
  0
CIRCLE
  8
0
 10
200
 20
200
 30
0.0
 40
200
  0
CIRCLE
  8
0
 10
300
 20
300
 30
0.0
 40
200
  0
CIRCLE
  8
0
 10
350
 20
350
 30
0.0
 40
200
  0
CIRCLE
  8
0
 10
360
 20
360
 30
0.0
 40
200
  0
CIRCLE
  8
0
 10
370
 20
370
 30
0.0
 40
200
  0
ENDSEC
  0
EOF
