  0
SECTION
  2
ENTITIES
  0
LINE
  8
0
 10
4626.13
 20
2107.88
 30
0.0
 11
4675.471
 21
2033.86
 31
0.0
  0
LINE
  8
0
 10
4675.471
 20
2033.86
 30
0.0
 11
4719.841
 21
2039.411
 31
0.0
  0
LINE
  8
0
 10
4719.841
 20
2039.411
 30
0.0
 11
4675.471
 21
1961.751
 31
0.0
  0
LINE
  8
0
 10
4675.471
 20
1961.751
 30
0.0
 11
4764.221
 21
1972.851
 31
0.0
  0
LINE
  8
0
 10
4764.221
 20
1972.851
 30
0.0
 11
4719.841
 21
1895.191
 31
0.0
  0
LINE
  8
0
 10
4719.841
 20
1895.191
 30
0.0
 11
4808.601
 21
1906.281
 31
0.0
  0
LINE
  8
0
 10
4808.601
 20
1906.281
 30
0.0
 11
4764.221
 21
1828.631
 31
0.0
  0
LINE
  8
0
 10
4764.221
 20
1828.631
 30
0.0
 11
4852.971
 21
1839.721
 31
0.0
  0
LINE
  8
0
 10
4852.971
 20
1839.721
 30
0.0
 11
4830.779
 21
1800.89
 31
0.0
  0
LINE
  8
0
 10
4830.779
 20
1800.89
 30
0.0
 11
4880.129
 21
1726.88
 31
0.0
  0
LINE
  8
0
 10
4880.129
 20
1726.88
 30
0.0
 11
4929.47
 21
1652.86
 31
0.0
  0
LINE
  8
0
 10
4929.47
 20
1652.86
 30
0.0
 11
4973.85
 21
1658.411
 31
0.0
  0
LINE
  8
0
 10
4973.85
 20
1658.411
 30
0.0
 11
4929.47
 21
1580.751
 31
0.0
  0
LINE
  8
0
 10
4929.47
 20
1580.751
 30
0.0
 11
5018.22
 21
1591.851
 31
0.0
  0
LINE
  8
0
 10
5018.22
 20
1591.851
 30
0.0
 11
4973.85
 21
1514.191
 31
0.0
  0
LINE
  8
0
 10
4973.85
 20
1514.191
 30
0.0
 11
5062.6
 21
1525.281
 31
0.0
  0
LINE
  8
0
 10
5062.6
 20
1525.281
 30
0.0
 11
5018.22
 21
1447.631
 31
0.0
  0
LINE
  8
0
 10
5018.22
 20
1447.631
 30
0.0
 11
5106.97
 21
1458.721
 31
0.0
  0
LINE
  8
0
 10
5106.97
 20
1458.721
 30
0.0
 11
5084.778
 21
1419.89
 31
0.0
  0
LINE
  8
0
 10
5084.778
 20
1419.89
 30
0.0
 11
5134.119
 21
1345.88
 31
0.0
  0
LINE
  8
0
 10
5134.119
 20
1345.88
 30
0.0
 11
5084.778
 21
1271.87
 31
0.0
  0
LINE
  8
0
 10
5084.778
 20
1271.87
 30
0.0
 11
5106.97
 21
1233.041
 31
0.0
  0
LINE
  8
0
 10
5106.97
 20
1233.041
 30
0.0
 11
5018.22
 21
1244.13
 31
0.0
  0
LINE
  8
0
 10
5018.22
 20
1244.13
 30
0.0
 11
5062.6
 21
1166.469
 31
0.0
  0
LINE
  8
0
 10
5062.6
 20
1166.469
 30
0.0
 11
4973.85
 21
1177.569
 31
0.0
  0
LINE
  8
0
 10
4973.85
 20
1177.569
 30
0.0
 11
5018.22
 21
1099.909
 31
0.0
  0
LINE
  8
0
 10
5018.22
 20
1099.909
 30
0.0
 11
4929.47
 21
1111
 31
0.0
  0
LINE
  8
0
 10
4929.47
 20
1111
 30
0.0
 11
4973.85
 21
1033.34
 31
0.0
  0
LINE
  8
0
 10
4973.85
 20
1033.34
 30
0.0
 11
4929.47
 21
1038.89
 31
0.0
  0
LINE
  8
0
 10
4929.47
 20
1038.89
 30
0.0
 11
4880.129
 21
964.8801
 31
0.0
  0
LINE
  8
0
 10
4880.129
 20
964.8801
 30
0.0
 11
4830.779
 21
890.87
 31
0.0
  0
LINE
  8
0
 10
4830.779
 20
890.87
 30
0.0
 11
4852.971
 21
852.0394
 31
0.0
  0
LINE
  8
0
 10
4852.971
 20
852.0394
 30
0.0
 11
4764.221
 21
863.1295
 31
0.0
  0
LINE
  8
0
 10
4764.221
 20
863.1295
 30
0.0
 11
4808.601
 21
785.4695
 31
0.0
  0
LINE
  8
0
 10
4808.601
 20
785.4695
 30
0.0
 11
4719.841
 21
796.5694
 31
0.0
  0
LINE
  8
0
 10
4719.841
 20
796.5694
 30
0.0
 11
4764.221
 21
718.9094
 31
0.0
  0
LINE
  8
0
 10
4764.221
 20
718.9094
 30
0.0
 11
4675.471
 21
729.9995
 31
0.0
  0
LINE
  8
0
 10
4675.471
 20
729.9995
 30
0.0
 11
4719.841
 21
652.3396
 31
0.0
  0
LINE
  8
0
 10
4719.841
 20
652.3396
 30
0.0
 11
4675.471
 21
657.8901
 31
0.0
  0
LINE
  8
0
 10
4675.471
 20
657.8901
 30
0.0
 11
4626.13
 21
583.8801
 31
0.0
  0
CIRCLE
  8
0
 10
1000
 20
7000
 30
0.0
 40
100
  0
CIRCLE
  8
0
 10
1000
 20
8000
 30
0.0
 40
100
  0
CIRCLE
  8
0
 10
2000
 20
7000
 30
0.0
 40
100
  0
CIRCLE
  8
0
 10
2000
 20
8000
 30
0.0
 40
100
  0
CIRCLE
  8
0
 10
100
 20
100
 30
0.0
 40
125
  0
CIRCLE
  8
0
 10
200
 20
200
 30
0.0
 40
200
  0
CIRCLE
  8
0
 10
300
 20
300
 30
0.0
 40
200
  0
CIRCLE
  8
0
 10
350
 20
350
 30
0.0
 40
200
  0
CIRCLE
  8
0
 10
360
 20
360
 30
0.0
 40
200
  0
CIRCLE
  8
0
 10
370
 20
370
 30
0.0
 40
200
  0
ENDSEC
  0
EOF
