  0
SECTION
  2
ENTITIES
  0
ARC
  8
0
 10
3656.05
 20
9171.785
 30
0.0
 40
36.74453
 50
263.42
 51
29.19988
  0
ARC
  8
0
 10
3647.627
 20
9098.786
 30
0.0
 40
36.74453
 50
83.41997
 51
209.1999
  0
ARC
  8
0
 10
3583.481
 20
9062.925
 30
0.0
 40
36.74453
 50
263.42
 51
29.19988
  0
ARC
  8
0
 10
3575.059
 20
8989.925
 30
0.0
 40
36.74453
 50
83.41997
 51
209.1999
  0
ARC
  8
0
 10
3510.908
 20
8954.075
 30
0.0
 40
36.74453
 50
263.42
 51
29.19988
  0
ARC
  8
0
 10
3502.49
 20
8881.064
 30
0.0
 40
36.74453
 50
83.41997
 51
209.1999
  0
ARC
  8
0
 10
3438.34
 20
8845.215
 30
0.0
 40
36.74453
 50
263.42
 51
29.19988
  0
ARC
  8
0
 10
3429.907
 20
8772.215
 30
0.0
 40
36.74453
 50
83.41997
 51
209.1999
  0
ARC
  8
0
 10
3365.757
 20
8736.355
 30
0.0
 40
36.74453
 50
263.42
 51
29.19988
  0
ARC
  8
0
 10
3357.339
 20
8663.354
 30
0.0
 40
36.74453
 50
83.41997
 51
209.1999
  0
ARC
  8
0
 10
3293.188
 20
8627.505
 30
0.0
 40
36.74453
 50
263.42
 51
29.19988
  0
ARC
  8
0
 10
3284.77
 20
8554.495
 30
0.0
 40
36.74453
 50
83.41997
 51
209.1999
  0
ARC
  8
0
 10
3220.62
 20
8518.646
 30
0.0
 40
36.74453
 50
263.42
 51
29.19988
  0
ARC
  8
0
 10
3212.197
 20
8445.635
 30
0.0
 40
36.74453
 50
83.41997
 51
209.1999
  0
ARC
  8
0
 10
3184.341
 20
8391.215
 30
0.0
 40
36.74453
 50
330.8001
 51
96.58001
  0
ARC
  8
0
 10
3248.491
 20
8355.355
 30
0.0
 40
36.74453
 50
150.8001
 51
276.58
  0
ARC
  8
0
 10
3256.909
 20
8282.354
 30
0.0
 40
36.74453
 50
330.8001
 51
96.58001
  0
ARC
  8
0
 10
3321.059
 20
8246.505
 30
0.0
 40
36.74453
 50
150.8001
 51
276.58
  0
ARC
  8
0
 10
3329.477
 20
8173.495
 30
0.0
 40
36.74453
 50
330.8001
 51
96.58001
  0
ARC
  8
0
 10
3393.628
 20
8137.645
 30
0.0
 40
36.74453
 50
150.8001
 51
276.58
  0
ARC
  8
0
 10
3402.051
 20
8064.635
 30
0.0
 40
36.74453
 50
330.8001
 51
96.58001
  0
ARC
  8
0
 10
3466.201
 20
8028.785
 30
0.0
 40
36.74453
 50
150.8001
 51
276.58
  0
ARC
  8
0
 10
3474.619
 20
7955.785
 30
0.0
 40
36.74453
 50
330.8001
 51
96.58001
  0
ARC
  8
0
 10
3538.77
 20
7919.924
 30
0.0
 40
36.74453
 50
150.8001
 51
276.58
  0
ARC
  8
0
 10
3547.188
 20
7846.925
 30
0.0
 40
36.74453
 50
330.8001
 51
96.58001
  0
ARC
  8
0
 10
3611.338
 20
7811.075
 30
0.0
 40
36.74453
 50
150.8001
 51
276.58
  0
ARC
  8
0
 10
3619.771
 20
7738.065
 30
0.0
 40
36.74453
 50
330.8001
 51
96.58001
  0
ARC
  8
0
 10
3683.921
 20
7702.214
 30
0.0
 40
36.74453
 50
150.8001
 51
276.58
  0
CIRCLE
  8
0
 10
1000
 20
7000
 30
0.0
 40
100
  0
CIRCLE
  8
0
 10
2000
 20
8000
 30
0.0
 40
100
  0
CIRCLE
  8
0
 10
3000
 20
7000
 30
0.0
 40
100
  0
CIRCLE
  8
0
 10
100
 20
100
 30
0.0
 40
125
  0
CIRCLE
  8
0
 10
200
 20
200
 30
0.0
 40
200
  0
CIRCLE
  8
0
 10
300
 20
300
 30
0.0
 40
200
  0
CIRCLE
  8
0
 10
350
 20
350
 30
0.0
 40
200
  0
CIRCLE
  8
0
 10
360
 20
360
 30
0.0
 40
200
  0
CIRCLE
  8
0
 10
370
 20
370
 30
0.0
 40
200
  0
ENDSEC
  0
EOF
