  0
SECTION
  2
ENTITIES
  0
LINE
  8
0
 10
0
 20
508
 30
0.0
 11
72.57143
 21
435.4286
 31
0.0
  0
LINE
  8
0
 10
72.57143
 20
435.4286
 30
0.0
 11
0
 21
435.4286
 31
0.0
  0
LINE
  8
0
 10
0
 20
435.4286
 30
0.0
 11
-72.57143
 21
435.4286
 31
0.0
  0
LINE
  8
0
 10
-72.57143
 20
435.4286
 30
0.0
 11
-145.1429
 21
362.8571
 31
0.0
  0
LINE
  8
0
 10
-145.1429
 20
362.8571
 30
0.0
 11
-72.57143
 21
362.8571
 31
0.0
  0
LINE
  8
0
 10
-72.57143
 20
362.8571
 30
0.0
 11
0
 21
362.8571
 31
0.0
  0
LINE
  8
0
 10
0
 20
362.8571
 30
0.0
 11
72.57143
 21
362.8571
 31
0.0
  0
LINE
  8
0
 10
72.57143
 20
362.8571
 30
0.0
 11
145.1429
 21
362.8571
 31
0.0
  0
LINE
  8
0
 10
145.1429
 20
362.8571
 30
0.0
 11
217.7143
 21
290.2857
 31
0.0
  0
LINE
  8
0
 10
217.7143
 20
290.2857
 30
0.0
 11
145.1429
 21
290.2857
 31
0.0
  0
LINE
  8
0
 10
145.1429
 20
290.2857
 30
0.0
 11
72.57143
 21
290.2857
 31
0.0
  0
LINE
  8
0
 10
72.57143
 20
290.2857
 30
0.0
 11
0
 21
290.2857
 31
0.0
  0
LINE
  8
0
 10
0
 20
290.2857
 30
0.0
 11
-72.57143
 21
290.2857
 31
0.0
  0
LINE
  8
0
 10
-72.57143
 20
290.2857
 30
0.0
 11
-145.1429
 21
290.2857
 31
0.0
  0
LINE
  8
0
 10
-145.1429
 20
290.2857
 30
0.0
 11
-217.7143
 21
290.2857
 31
0.0
  0
LINE
  8
0
 10
-217.7143
 20
290.2857
 30
0.0
 11
-290.2857
 21
217.7143
 31
0.0
  0
LINE
  8
0
 10
-290.2857
 20
217.7143
 30
0.0
 11
-217.7143
 21
217.7143
 31
0.0
  0
LINE
  8
0
 10
-217.7143
 20
217.7143
 30
0.0
 11
-145.1429
 21
217.7143
 31
0.0
  0
LINE
  8
0
 10
-145.1429
 20
217.7143
 30
0.0
 11
-72.57143
 21
217.7143
 31
0.0
  0
LINE
  8
0
 10
-72.57143
 20
217.7143
 30
0.0
 11
0
 21
217.7143
 31
0.0
  0
LINE
  8
0
 10
0
 20
217.7143
 30
0.0
 11
72.57143
 21
217.7143
 31
0.0
  0
LINE
  8
0
 10
72.57143
 20
217.7143
 30
0.0
 11
145.1429
 21
217.7143
 31
0.0
  0
LINE
  8
0
 10
145.1429
 20
217.7143
 30
0.0
 11
217.7143
 21
217.7143
 31
0.0
  0
LINE
  8
0
 10
217.7143
 20
217.7143
 30
0.0
 11
290.2857
 21
217.7143
 31
0.0
  0
LINE
  8
0
 10
290.2857
 20
217.7143
 30
0.0
 11
362.8571
 21
145.1429
 31
0.0
  0
LINE
  8
0
 10
362.8571
 20
145.1429
 30
0.0
 11
290.2857
 21
145.1429
 31
0.0
  0
LINE
  8
0
 10
290.2857
 20
145.1429
 30
0.0
 11
217.7143
 21
145.1429
 31
0.0
  0
LINE
  8
0
 10
217.7143
 20
145.1429
 30
0.0
 11
145.1429
 21
145.1429
 31
0.0
  0
LINE
  8
0
 10
145.1429
 20
145.1429
 30
0.0
 11
72.57143
 21
145.1429
 31
0.0
  0
LINE
  8
0
 10
72.57143
 20
145.1429
 30
0.0
 11
0
 21
145.1429
 31
0.0
  0
LINE
  8
0
 10
0
 20
145.1429
 30
0.0
 11
-72.57143
 21
145.1429
 31
0.0
  0
LINE
  8
0
 10
-72.57143
 20
145.1429
 30
0.0
 11
-145.1429
 21
145.1429
 31
0.0
  0
LINE
  8
0
 10
-145.1429
 20
145.1429
 30
0.0
 11
-217.7143
 21
145.1429
 31
0.0
  0
LINE
  8
0
 10
-217.7143
 20
145.1429
 30
0.0
 11
-290.2857
 21
145.1429
 31
0.0
  0
LINE
  8
0
 10
-290.2857
 20
145.1429
 30
0.0
 11
-362.8571
 21
145.1429
 31
0.0
  0
LINE
  8
0
 10
-362.8571
 20
145.1429
 30
0.0
 11
-435.4286
 21
72.57143
 31
0.0
  0
LINE
  8
0
 10
-435.4286
 20
72.57143
 30
0.0
 11
-362.8571
 21
72.57143
 31
0.0
  0
LINE
  8
0
 10
-362.8571
 20
72.57143
 30
0.0
 11
-290.2857
 21
72.57143
 31
0.0
  0
LINE
  8
0
 10
-290.2857
 20
72.57143
 30
0.0
 11
-217.7143
 21
72.57143
 31
0.0
  0
LINE
  8
0
 10
-217.7143
 20
72.57143
 30
0.0
 11
-145.1429
 21
72.57143
 31
0.0
  0
LINE
  8
0
 10
-145.1429
 20
72.57143
 30
0.0
 11
-72.57143
 21
72.57143
 31
0.0
  0
LINE
  8
0
 10
-72.57143
 20
72.57143
 30
0.0
 11
0
 21
72.57143
 31
0.0
  0
LINE
  8
0
 10
0
 20
72.57143
 30
0.0
 11
72.57143
 21
72.57143
 31
0.0
  0
LINE
  8
0
 10
72.57143
 20
72.57143
 30
0.0
 11
145.1429
 21
72.57143
 31
0.0
  0
LINE
  8
0
 10
145.1429
 20
72.57143
 30
0.0
 11
217.7143
 21
72.57143
 31
0.0
  0
LINE
  8
0
 10
217.7143
 20
72.57143
 30
0.0
 11
290.2857
 21
72.57143
 31
0.0
  0
LINE
  8
0
 10
290.2857
 20
72.57143
 30
0.0
 11
362.8571
 21
72.57143
 31
0.0
  0
LINE
  8
0
 10
362.8571
 20
72.57143
 30
0.0
 11
435.4286
 21
72.57143
 31
0.0
  0
LINE
  8
0
 10
435.4286
 20
72.57143
 30
0.0
 11
508
 21
0
 31
0.0
  0
LINE
  8
0
 10
508
 20
0
 30
0.0
 11
435.4286
 21
0
 31
0.0
  0
LINE
  8
0
 10
435.4286
 20
0
 30
0.0
 11
362.8571
 21
0
 31
0.0
  0
LINE
  8
0
 10
362.8571
 20
0
 30
0.0
 11
290.2857
 21
0
 31
0.0
  0
LINE
  8
0
 10
290.2857
 20
0
 30
0.0
 11
217.7143
 21
0
 31
0.0
  0
LINE
  8
0
 10
217.7143
 20
0
 30
0.0
 11
145.1429
 21
0
 31
0.0
  0
LINE
  8
0
 10
145.1429
 20
0
 30
0.0
 11
72.57143
 21
0
 31
0.0
  0
LINE
  8
0
 10
72.57143
 20
0
 30
0.0
 11
0
 21
0
 31
0.0
  0
LINE
  8
0
 10
0
 20
0
 30
0.0
 11
-72.57143
 21
0
 31
0.0
  0
LINE
  8
0
 10
-72.57143
 20
0
 30
0.0
 11
-145.1429
 21
0
 31
0.0
  0
LINE
  8
0
 10
-145.1429
 20
0
 30
0.0
 11
-217.7143
 21
0
 31
0.0
  0
LINE
  8
0
 10
-217.7143
 20
0
 30
0.0
 11
-290.2857
 21
0
 31
0.0
  0
LINE
  8
0
 10
-290.2857
 20
0
 30
0.0
 11
-362.8571
 21
0
 31
0.0
  0
LINE
  8
0
 10
-362.8571
 20
0
 30
0.0
 11
-435.4286
 21
0
 31
0.0
  0
LINE
  8
0
 10
-435.4286
 20
0
 30
0.0
 11
-508
 21
0
 31
0.0
  0
LINE
  8
0
 10
-508
 20
0
 30
0.0
 11
-435.4286
 21
-72.57143
 31
0.0
  0
LINE
  8
0
 10
-435.4286
 20
-72.57143
 30
0.0
 11
-362.8571
 21
-72.57143
 31
0.0
  0
LINE
  8
0
 10
-362.8571
 20
-72.57143
 30
0.0
 11
-290.2857
 21
-72.57143
 31
0.0
  0
LINE
  8
0
 10
-290.2857
 20
-72.57143
 30
0.0
 11
-217.7143
 21
-72.57143
 31
0.0
  0
LINE
  8
0
 10
-217.7143
 20
-72.57143
 30
0.0
 11
-145.1429
 21
-72.57143
 31
0.0
  0
LINE
  8
0
 10
-145.1429
 20
-72.57143
 30
0.0
 11
-72.57143
 21
-72.57143
 31
0.0
  0
LINE
  8
0
 10
-72.57143
 20
-72.57143
 30
0.0
 11
0
 21
-72.57143
 31
0.0
  0
LINE
  8
0
 10
0
 20
-72.57143
 30
0.0
 11
72.57143
 21
-72.57143
 31
0.0
  0
LINE
  8
0
 10
72.57143
 20
-72.57143
 30
0.0
 11
145.1429
 21
-72.57143
 31
0.0
  0
LINE
  8
0
 10
145.1429
 20
-72.57143
 30
0.0
 11
217.7143
 21
-72.57143
 31
0.0
  0
LINE
  8
0
 10
217.7143
 20
-72.57143
 30
0.0
 11
290.2857
 21
-72.57143
 31
0.0
  0
LINE
  8
0
 10
290.2857
 20
-72.57143
 30
0.0
 11
362.8571
 21
-72.57143
 31
0.0
  0
LINE
  8
0
 10
362.8571
 20
-72.57143
 30
0.0
 11
435.4286
 21
-72.57143
 31
0.0
  0
LINE
  8
0
 10
435.4286
 20
-72.57143
 30
0.0
 11
362.8571
 21
-145.1429
 31
0.0
  0
LINE
  8
0
 10
362.8571
 20
-145.1429
 30
0.0
 11
290.2857
 21
-145.1429
 31
0.0
  0
LINE
  8
0
 10
290.2857
 20
-145.1429
 30
0.0
 11
217.7143
 21
-145.1429
 31
0.0
  0
LINE
  8
0
 10
217.7143
 20
-145.1429
 30
0.0
 11
145.1429
 21
-145.1429
 31
0.0
  0
LINE
  8
0
 10
145.1429
 20
-145.1429
 30
0.0
 11
72.57143
 21
-145.1429
 31
0.0
  0
LINE
  8
0
 10
72.57143
 20
-145.1429
 30
0.0
 11
0
 21
-145.1429
 31
0.0
  0
LINE
  8
0
 10
0
 20
-145.1429
 30
0.0
 11
-72.57143
 21
-145.1429
 31
0.0
  0
LINE
  8
0
 10
-72.57143
 20
-145.1429
 30
0.0
 11
-145.1429
 21
-145.1429
 31
0.0
  0
LINE
  8
0
 10
-145.1429
 20
-145.1429
 30
0.0
 11
-217.7143
 21
-145.1429
 31
0.0
  0
LINE
  8
0
 10
-217.7143
 20
-145.1429
 30
0.0
 11
-290.2857
 21
-145.1429
 31
0.0
  0
LINE
  8
0
 10
-290.2857
 20
-145.1429
 30
0.0
 11
-362.8571
 21
-145.1429
 31
0.0
  0
LINE
  8
0
 10
-362.8571
 20
-145.1429
 30
0.0
 11
-290.2857
 21
-217.7143
 31
0.0
  0
LINE
  8
0
 10
-290.2857
 20
-217.7143
 30
0.0
 11
-217.7143
 21
-217.7143
 31
0.0
  0
LINE
  8
0
 10
-217.7143
 20
-217.7143
 30
0.0
 11
-145.1429
 21
-217.7143
 31
0.0
  0
LINE
  8
0
 10
-145.1429
 20
-217.7143
 30
0.0
 11
-72.57143
 21
-217.7143
 31
0.0
  0
LINE
  8
0
 10
-72.57143
 20
-217.7143
 30
0.0
 11
0
 21
-217.7143
 31
0.0
  0
LINE
  8
0
 10
0
 20
-217.7143
 30
0.0
 11
72.57143
 21
-217.7143
 31
0.0
  0
LINE
  8
0
 10
72.57143
 20
-217.7143
 30
0.0
 11
145.1429
 21
-217.7143
 31
0.0
  0
LINE
  8
0
 10
145.1429
 20
-217.7143
 30
0.0
 11
217.7143
 21
-217.7143
 31
0.0
  0
LINE
  8
0
 10
217.7143
 20
-217.7143
 30
0.0
 11
290.2857
 21
-217.7143
 31
0.0
  0
LINE
  8
0
 10
290.2857
 20
-217.7143
 30
0.0
 11
217.7143
 21
-290.2857
 31
0.0
  0
LINE
  8
0
 10
217.7143
 20
-290.2857
 30
0.0
 11
145.1429
 21
-290.2857
 31
0.0
  0
LINE
  8
0
 10
145.1429
 20
-290.2857
 30
0.0
 11
72.57143
 21
-290.2857
 31
0.0
  0
LINE
  8
0
 10
72.57143
 20
-290.2857
 30
0.0
 11
0
 21
-290.2857
 31
0.0
  0
LINE
  8
0
 10
0
 20
-290.2857
 30
0.0
 11
-72.57143
 21
-290.2857
 31
0.0
  0
LINE
  8
0
 10
-72.57143
 20
-290.2857
 30
0.0
 11
-145.1429
 21
-290.2857
 31
0.0
  0
LINE
  8
0
 10
-145.1429
 20
-290.2857
 30
0.0
 11
-217.7143
 21
-290.2857
 31
0.0
  0
LINE
  8
0
 10
-217.7143
 20
-290.2857
 30
0.0
 11
-145.1429
 21
-362.8571
 31
0.0
  0
LINE
  8
0
 10
-145.1429
 20
-362.8571
 30
0.0
 11
-72.57143
 21
-362.8571
 31
0.0
  0
LINE
  8
0
 10
-72.57143
 20
-362.8571
 30
0.0
 11
0
 21
-362.8571
 31
0.0
  0
LINE
  8
0
 10
0
 20
-362.8571
 30
0.0
 11
72.57143
 21
-362.8571
 31
0.0
  0
LINE
  8
0
 10
72.57143
 20
-362.8571
 30
0.0
 11
145.1429
 21
-362.8571
 31
0.0
  0
LINE
  8
0
 10
145.1429
 20
-362.8571
 30
0.0
 11
72.57143
 21
-435.4286
 31
0.0
  0
LINE
  8
0
 10
72.57143
 20
-435.4286
 30
0.0
 11
0
 21
-435.4286
 31
0.0
  0
LINE
  8
0
 10
0
 20
-435.4286
 30
0.0
 11
-72.57143
 21
-435.4286
 31
0.0
  0
LINE
  8
0
 10
-72.57143
 20
-435.4286
 30
0.0
 11
0
 21
-508
 31
0.0
  0
LINE
  8
0
 10
0
 20
-508
 30
0.0
 11
0
 21
-580.5714
 31
0.0
  0
LINE
  8
0
 10
0
 20
-580.5714
 30
0.0
 11
0
 21
-653.1428
 31
0.0
  0
LINE
  8
0
 10
0
 20
-653.1428
 30
0.0
 11
0
 21
-725.7143
 31
0.0
  0
LINE
  8
0
 10
0
 20
-725.7143
 30
0.0
 11
0
 21
-798.2857
 31
0.0
  0
LINE
  8
0
 10
0
 20
-798.2857
 30
0.0
 11
0
 21
-870.8571
 31
0.0
  0
LINE
  8
0
 10
0
 20
-870.8571
 30
0.0
 11
0
 21
-943.4285
 31
0.0
  0
LINE
  8
0
 10
0
 20
-943.4285
 30
0.0
 11
0
 21
-1016
 31
0.0
  0
CIRCLE
  8
0
 10
1000
 20
7000
 30
0.0
 40
100
  0
CIRCLE
  8
0
 10
2500
 20
8000
 30
0.0
 40
100
  0
CIRCLE
  8
0
 10
4000
 20
7000
 30
0.0
 40
100
  0
CIRCLE
  8
0
 10
100
 20
100
 30
0.0
 40
125
  0
CIRCLE
  8
0
 10
200
 20
200
 30
0.0
 40
200
  0
CIRCLE
  8
0
 10
300
 20
300
 30
0.0
 40
200
  0
CIRCLE
  8
0
 10
350
 20
350
 30
0.0
 40
200
  0
CIRCLE
  8
0
 10
360
 20
360
 30
0.0
 40
200
  0
CIRCLE
  8
0
 10
370
 20
370
 30
0.0
 40
200
  0
ENDSEC
  0
EOF
