  0
SECTION
  2
ENTITIES
  0
LINE
  8
0
 10
4444.816
 20
2969.78
 30
0.0
 11
4444.816
 21
1953.78
 31
0.0
  0
LINE
  8
0
 10
4444.816
 20
1953.78
 30
0.0
 11
4772.814
 21
1609.54
 31
0.0
  0
LINE
  8
0
 10
4772.814
 20
1609.54
 30
0.0
 11
5132.814
 21
1609.54
 31
0.0
  0
LINE
  8
0
 10
5132.814
 20
1609.54
 30
0.0
 11
5132.814
 21
1249.54
 31
0.0
  0
LINE
  8
0
 10
5132.814
 20
1249.54
 30
0.0
 11
5460.812
 21
937.7799
 31
0.0
  0
LINE
  8
0
 10
5460.812
 20
937.7799
 30
0.0
 11
4444.816
 21
937.7799
 31
0.0
  0
CIRCLE
  8
0
 10
1000
 20
6000
 30
0.0
 40
100
  0
CIRCLE
  8
0
 10
1000
 20
8000
 30
0.0
 40
100
  0
CIRCLE
  8
0
 10
3000
 20
6000
 30
0.0
 40
100
  0
CIRCLE
  8
0
 10
3000
 20
8000
 30
0.0
 40
100
  0
CIRCLE
  8
0
 10
100
 20
100
 30
0.0
 40
128
  0
CIRCLE
  8
0
 10
200
 20
200
 30
0.0
 40
188
  0
CIRCLE
  8
0
 10
300
 20
300
 30
0.0
 40
162
  0
CIRCLE
  8
0
 10
350
 20
350
 30
0.0
 40
200
  0
CIRCLE
  8
0
 10
360
 20
360
 30
0.0
 40
200
  0
CIRCLE
  8
0
 10
370
 20
370
 30
0.0
 40
200
  0
ENDSEC
  0
EOF
