  0
SECTION
  2
ENTITIES
  0
LINE
  8
0
 10
5025.894
 20
3139.195
 30
0.0
 11
5279.893
 21
2885.195
 31
0.0
  0
LINE
  8
0
 10
5279.893
 20
2885.195
 30
0.0
 11
5533.893
 21
2885.195
 31
0.0
  0
LINE
  8
0
 10
5533.893
 20
2885.195
 30
0.0
 11
5533.893
 21
2631.194
 31
0.0
  0
LINE
  8
0
 10
5533.893
 20
2631.194
 30
0.0
 11
5279.893
 21
2631.194
 31
0.0
  0
LINE
  8
0
 10
5279.893
 20
2631.194
 30
0.0
 11
5279.893
 21
2885.195
 31
0.0
  0
LINE
  8
0
 10
5279.893
 20
2885.195
 30
0.0
 11
5533.893
 21
2631.194
 31
0.0
  0
LINE
  8
0
 10
5533.893
 20
2631.194
 30
0.0
 11
5787.896
 21
2377.195
 31
0.0
  0
LINE
  8
0
 10
5787.896
 20
2377.195
 30
0.0
 11
5533.893
 21
2123.196
 31
0.0
  0
LINE
  8
0
 10
5533.893
 20
2123.195
 30
0.0
 11
5279.893
 21
2123.195
 31
0.0
  0
LINE
  8
0
 10
5279.893
 20
2123.195
 30
0.0
 11
5279.893
 21
1869.194
 31
0.0
  0
LINE
  8
0
 10
5279.893
 20
1869.194
 30
0.0
 11
5533.893
 21
1869.194
 31
0.0
  0
LINE
  8
0
 10
5533.893
 20
1869.194
 30
0.0
 11
5533.893
 21
2123.195
 31
0.0
  0
LINE
  8
0
 10
5533.893
 20
2123.196
 30
0.0
 11
5279.893
 21
1869.196
 31
0.0
  0
LINE
  8
0
 10
5279.893
 20
1869.196
 30
0.0
 11
5025.894
 21
1615.195
 31
0.0
  0
CIRCLE
  8
0
 10
1000
 20
7000
 30
0.0
 40
100
  0
CIRCLE
  8
0
 10
2500
 20
8000
 30
0.0
 40
100
  0
CIRCLE
  8
0
 10
4000
 20
7000
 30
0.0
 40
100
  0
CIRCLE
  8
0
 10
100
 20
100
 30
0.0
 40
125
  0
CIRCLE
  8
0
 10
200
 20
200
 30
0.0
 40
200
  0
CIRCLE
  8
0
 10
300
 20
300
 30
0.0
 40
200
  0
CIRCLE
  8
0
 10
350
 20
350
 30
0.0
 40
200
  0
CIRCLE
  8
0
 10
360
 20
360
 30
0.0
 40
200
  0
CIRCLE
  8
0
 10
370
 20
370
 30
0.0
 40
200
  0
ENDSEC
  0
EOF
