  0
SECTION
  2
ENTITIES
  0
LINE
  8
0
 10
5361.022
 20
1663.991
 30
0.0
 11
5361.022
 21
1568.742
 31
0.0
  0
LINE
  8
0
 10
5361.022
 20
1568.742
 30
0.0
 11
5265.773
 21
1568.742
 31
0.0
  0
LINE
  8
0
 10
5265.773
 20
1568.742
 30
0.0
 11
5361.022
 21
1568.742
 31
0.0
  0
LINE
  8
0
 10
5361.022
 20
1568.742
 30
0.0
 11
5456.271
 21
1568.742
 31
0.0
  0
LINE
  8
0
 10
5456.271
 20
1568.742
 30
0.0
 11
5361.022
 21
1568.742
 31
0.0
  0
LINE
  8
0
 10
5361.022
 20
1568.742
 30
0.0
 11
5361.022
 21
1473.492
 31
0.0
  0
LINE
  8
0
 10
5361.022
 20
1473.492
 30
0.0
 11
5170.519
 21
1473.492
 31
0.0
  0
LINE
  8
0
 10
5170.519
 20
1473.492
 30
0.0
 11
5361.022
 21
1473.492
 31
0.0
  0
LINE
  8
0
 10
5361.022
 20
1473.492
 30
0.0
 11
5551.521
 21
1473.492
 31
0.0
  0
LINE
  8
0
 10
5551.521
 20
1473.492
 30
0.0
 11
5361.022
 21
1473.492
 31
0.0
  0
LINE
  8
0
 10
5361.022
 20
1473.492
 30
0.0
 11
5361.022
 21
1378.241
 31
0.0
  0
LINE
  8
0
 10
5361.022
 20
1378.241
 30
0.0
 11
5075.27
 21
1378.241
 31
0.0
  0
LINE
  8
0
 10
5075.27
 20
1378.241
 30
0.0
 11
5361.022
 21
1378.241
 31
0.0
  0
LINE
  8
0
 10
5361.022
 20
1378.241
 30
0.0
 11
5646.77
 21
1378.241
 31
0.0
  0
LINE
  8
0
 10
5646.77
 20
1378.241
 30
0.0
 11
5361.022
 21
1378.241
 31
0.0
  0
LINE
  8
0
 10
5361.022
 20
1378.241
 30
0.0
 11
5361.022
 21
1282.991
 31
0.0
  0
LINE
  8
0
 10
5361.022
 20
1282.991
 30
0.0
 11
4980.021
 21
1282.991
 31
0.0
  0
LINE
  8
0
 10
4980.021
 20
1282.991
 30
0.0
 11
5361.022
 21
1282.991
 31
0.0
  0
LINE
  8
0
 10
5361.022
 20
1282.991
 30
0.0
 11
5742.023
 21
1282.991
 31
0.0
  0
LINE
  8
0
 10
5742.023
 20
1282.991
 30
0.0
 11
5361.022
 21
1282.991
 31
0.0
  0
LINE
  8
0
 10
5361.022
 20
1282.991
 30
0.0
 11
5361.022
 21
1187.741
 31
0.0
  0
LINE
  8
0
 10
5361.022
 20
1187.741
 30
0.0
 11
5075.27
 21
1187.741
 31
0.0
  0
LINE
  8
0
 10
5075.27
 20
1187.741
 30
0.0
 11
5361.022
 21
1187.741
 31
0.0
  0
LINE
  8
0
 10
5361.022
 20
1187.741
 30
0.0
 11
5646.77
 21
1187.741
 31
0.0
  0
LINE
  8
0
 10
5646.77
 20
1187.741
 30
0.0
 11
5361.022
 21
1187.741
 31
0.0
  0
LINE
  8
0
 10
5361.022
 20
1187.741
 30
0.0
 11
5361.022
 21
1092.492
 31
0.0
  0
LINE
  8
0
 10
5361.022
 20
1092.492
 30
0.0
 11
5170.519
 21
1092.492
 31
0.0
  0
LINE
  8
0
 10
5170.519
 20
1092.492
 30
0.0
 11
5361.022
 21
1092.492
 31
0.0
  0
LINE
  8
0
 10
5361.022
 20
1092.492
 30
0.0
 11
5551.521
 21
1092.492
 31
0.0
  0
LINE
  8
0
 10
5551.521
 20
1092.492
 30
0.0
 11
5361.022
 21
1092.492
 31
0.0
  0
LINE
  8
0
 10
5361.022
 20
1092.492
 30
0.0
 11
5361.022
 21
997.2413
 31
0.0
  0
LINE
  8
0
 10
5361.022
 20
997.2413
 30
0.0
 11
5265.773
 21
997.2413
 31
0.0
  0
LINE
  8
0
 10
5265.773
 20
997.2413
 30
0.0
 11
5361.022
 21
997.2413
 31
0.0
  0
LINE
  8
0
 10
5361.022
 20
997.2413
 30
0.0
 11
5456.271
 21
997.2413
 31
0.0
  0
LINE
  8
0
 10
5456.271
 20
997.2413
 30
0.0
 11
5361.022
 21
997.2413
 31
0.0
  0
LINE
  8
0
 10
5361.022
 20
997.2413
 30
0.0
 11
5361.022
 21
901.991
 31
0.0
  0
CIRCLE
  8
0
 10
1000
 20
7000
 30
0.0
 40
100
  0
CIRCLE
  8
0
 10
2500
 20
7000
 30
0.0
 40
100
  0
CIRCLE
  8
0
 10
100
 20
100
 30
0.0
 40
125
  0
CIRCLE
  8
0
 10
200
 20
200
 30
0.0
 40
200
  0
CIRCLE
  8
0
 10
300
 20
300
 30
0.0
 40
200
  0
CIRCLE
  8
0
 10
350
 20
350
 30
0.0
 40
200
  0
CIRCLE
  8
0
 10
360
 20
360
 30
0.0
 40
200
  0
CIRCLE
  8
0
 10
370
 20
370
 30
0.0
 40
200
  0
ENDSEC
  0
EOF
