  0
SECTION
  2
ENTITIES
  0
LINE
  8
0
 10
381
 20
762
 30
0.0
 11
428.625
 21
666.75
 31
0.0
  0
LINE
  8
0
 10
428.625
 20
666.75
 30
0.0
 11
381
 21
666.75
 31
0.0
  0
LINE
  8
0
 10
381
 20
666.75
 30
0.0
 11
333.375
 21
666.75
 31
0.0
  0
LINE
  8
0
 10
333.375
 20
666.75
 30
0.0
 11
285.75
 21
571.5
 31
0.0
  0
LINE
  8
0
 10
285.75
 20
571.5
 30
0.0
 11
333.375
 21
571.5
 31
0.0
  0
LINE
  8
0
 10
333.375
 20
571.5
 30
0.0
 11
381
 21
571.5
 31
0.0
  0
LINE
  8
0
 10
381
 20
571.5
 30
0.0
 11
428.625
 21
571.5
 31
0.0
  0
LINE
  8
0
 10
428.625
 20
571.5
 30
0.0
 11
476.25
 21
571.5
 31
0.0
  0
LINE
  8
0
 10
476.25
 20
571.5
 30
0.0
 11
523.875
 21
476.25
 31
0.0
  0
LINE
  8
0
 10
523.875
 20
476.25
 30
0.0
 11
476.25
 21
476.25
 31
0.0
  0
LINE
  8
0
 10
476.25
 20
476.25
 30
0.0
 11
428.625
 21
476.25
 31
0.0
  0
LINE
  8
0
 10
428.625
 20
476.25
 30
0.0
 11
381
 21
476.25
 31
0.0
  0
LINE
  8
0
 10
381
 20
476.25
 30
0.0
 11
333.375
 21
476.25
 31
0.0
  0
LINE
  8
0
 10
333.375
 20
476.25
 30
0.0
 11
285.75
 21
476.25
 31
0.0
  0
LINE
  8
0
 10
285.75
 20
476.25
 30
0.0
 11
238.125
 21
476.25
 31
0.0
  0
LINE
  8
0
 10
238.125
 20
476.25
 30
0.0
 11
190.5
 21
381
 31
0.0
  0
LINE
  8
0
 10
190.5
 20
381
 30
0.0
 11
238.125
 21
381
 31
0.0
  0
LINE
  8
0
 10
238.125
 20
381
 30
0.0
 11
285.75
 21
381
 31
0.0
  0
LINE
  8
0
 10
285.75
 20
381
 30
0.0
 11
333.375
 21
381
 31
0.0
  0
LINE
  8
0
 10
333.375
 20
381
 30
0.0
 11
381
 21
381
 31
0.0
  0
LINE
  8
0
 10
381
 20
381
 30
0.0
 11
428.625
 21
381
 31
0.0
  0
LINE
  8
0
 10
428.625
 20
381
 30
0.0
 11
476.25
 21
381
 31
0.0
  0
LINE
  8
0
 10
476.25
 20
381
 30
0.0
 11
523.875
 21
381
 31
0.0
  0
LINE
  8
0
 10
523.875
 20
381
 30
0.0
 11
571.5
 21
381
 31
0.0
  0
LINE
  8
0
 10
571.5
 20
381
 30
0.0
 11
619.125
 21
285.75
 31
0.0
  0
LINE
  8
0
 10
619.125
 20
285.75
 30
0.0
 11
571.5
 21
285.75
 31
0.0
  0
LINE
  8
0
 10
571.5
 20
285.75
 30
0.0
 11
523.875
 21
285.75
 31
0.0
  0
LINE
  8
0
 10
523.875
 20
285.75
 30
0.0
 11
476.25
 21
285.75
 31
0.0
  0
LINE
  8
0
 10
476.25
 20
285.75
 30
0.0
 11
428.625
 21
285.75
 31
0.0
  0
LINE
  8
0
 10
428.625
 20
285.75
 30
0.0
 11
381
 21
285.75
 31
0.0
  0
LINE
  8
0
 10
381
 20
285.75
 30
0.0
 11
333.375
 21
285.75
 31
0.0
  0
LINE
  8
0
 10
333.375
 20
285.75
 30
0.0
 11
285.75
 21
285.75
 31
0.0
  0
LINE
  8
0
 10
285.75
 20
285.75
 30
0.0
 11
238.125
 21
285.75
 31
0.0
  0
LINE
  8
0
 10
238.125
 20
285.75
 30
0.0
 11
190.5
 21
285.75
 31
0.0
  0
LINE
  8
0
 10
190.5
 20
285.75
 30
0.0
 11
142.875
 21
285.75
 31
0.0
  0
LINE
  8
0
 10
142.875
 20
285.75
 30
0.0
 11
95.25
 21
190.5
 31
0.0
  0
LINE
  8
0
 10
95.25
 20
190.5
 30
0.0
 11
142.875
 21
190.5
 31
0.0
  0
LINE
  8
0
 10
142.875
 20
190.5
 30
0.0
 11
190.5
 21
190.5
 31
0.0
  0
LINE
  8
0
 10
190.5
 20
190.5
 30
0.0
 11
238.125
 21
190.5
 31
0.0
  0
LINE
  8
0
 10
238.125
 20
190.5
 30
0.0
 11
285.75
 21
190.5
 31
0.0
  0
LINE
  8
0
 10
285.75
 20
190.5
 30
0.0
 11
333.375
 21
190.5
 31
0.0
  0
LINE
  8
0
 10
333.375
 20
190.5
 30
0.0
 11
381
 21
190.5
 31
0.0
  0
LINE
  8
0
 10
381
 20
190.5
 30
0.0
 11
428.625
 21
190.5
 31
0.0
  0
LINE
  8
0
 10
428.625
 20
190.5
 30
0.0
 11
476.25
 21
190.5
 31
0.0
  0
LINE
  8
0
 10
476.25
 20
190.5
 30
0.0
 11
523.875
 21
190.5
 31
0.0
  0
LINE
  8
0
 10
523.875
 20
190.5
 30
0.0
 11
571.5
 21
190.5
 31
0.0
  0
LINE
  8
0
 10
571.5
 20
190.5
 30
0.0
 11
619.125
 21
190.5
 31
0.0
  0
LINE
  8
0
 10
619.125
 20
190.5
 30
0.0
 11
666.75
 21
190.5
 31
0.0
  0
LINE
  8
0
 10
666.75
 20
190.5
 30
0.0
 11
714.375
 21
95.25
 31
0.0
  0
LINE
  8
0
 10
714.375
 20
95.25
 30
0.0
 11
666.75
 21
95.25
 31
0.0
  0
LINE
  8
0
 10
666.75
 20
95.25
 30
0.0
 11
619.125
 21
95.25
 31
0.0
  0
LINE
  8
0
 10
619.125
 20
95.25
 30
0.0
 11
571.5
 21
95.25
 31
0.0
  0
LINE
  8
0
 10
571.5
 20
95.25
 30
0.0
 11
523.875
 21
95.25
 31
0.0
  0
LINE
  8
0
 10
523.875
 20
95.25
 30
0.0
 11
476.25
 21
95.25
 31
0.0
  0
LINE
  8
0
 10
476.25
 20
95.25
 30
0.0
 11
428.625
 21
95.25
 31
0.0
  0
LINE
  8
0
 10
428.625
 20
95.25
 30
0.0
 11
381
 21
95.25
 31
0.0
  0
LINE
  8
0
 10
381
 20
95.25
 30
0.0
 11
333.375
 21
95.25
 31
0.0
  0
LINE
  8
0
 10
333.375
 20
95.25
 30
0.0
 11
285.75
 21
95.25
 31
0.0
  0
LINE
  8
0
 10
285.75
 20
95.25
 30
0.0
 11
238.125
 21
95.25
 31
0.0
  0
LINE
  8
0
 10
238.125
 20
95.25
 30
0.0
 11
190.5
 21
95.25
 31
0.0
  0
LINE
  8
0
 10
190.5
 20
95.25
 30
0.0
 11
142.875
 21
95.25
 31
0.0
  0
LINE
  8
0
 10
142.875
 20
95.25
 30
0.0
 11
95.25
 21
95.25
 31
0.0
  0
LINE
  8
0
 10
95.25
 20
95.25
 30
0.0
 11
47.625
 21
95.25
 31
0.0
  0
LINE
  8
0
 10
47.625
 20
95.25
 30
0.0
 11
0
 21
0
 31
0.0
  0
LINE
  8
0
 10
0
 20
0
 30
0.0
 11
47.625
 21
0
 31
0.0
  0
LINE
  8
0
 10
47.625
 20
0
 30
0.0
 11
95.25
 21
0
 31
0.0
  0
LINE
  8
0
 10
95.25
 20
0
 30
0.0
 11
142.875
 21
0
 31
0.0
  0
LINE
  8
0
 10
142.875
 20
0
 30
0.0
 11
190.5
 21
0
 31
0.0
  0
LINE
  8
0
 10
190.5
 20
0
 30
0.0
 11
238.125
 21
0
 31
0.0
  0
LINE
  8
0
 10
238.125
 20
0
 30
0.0
 11
285.75
 21
0
 31
0.0
  0
LINE
  8
0
 10
285.75
 20
0
 30
0.0
 11
333.375
 21
0
 31
0.0
  0
LINE
  8
0
 10
333.375
 20
0
 30
0.0
 11
381
 21
0
 31
0.0
  0
LINE
  8
0
 10
381
 20
0
 30
0.0
 11
428.625
 21
0
 31
0.0
  0
LINE
  8
0
 10
428.625
 20
0
 30
0.0
 11
476.25
 21
0
 31
0.0
  0
LINE
  8
0
 10
476.25
 20
0
 30
0.0
 11
523.875
 21
0
 31
0.0
  0
LINE
  8
0
 10
523.875
 20
0
 30
0.0
 11
571.5
 21
0
 31
0.0
  0
LINE
  8
0
 10
571.5
 20
0
 30
0.0
 11
619.125
 21
0
 31
0.0
  0
LINE
  8
0
 10
619.125
 20
0
 30
0.0
 11
666.75
 21
0
 31
0.0
  0
LINE
  8
0
 10
666.75
 20
0
 30
0.0
 11
714.375
 21
0
 31
0.0
  0
LINE
  8
0
 10
714.375
 20
0
 30
0.0
 11
762
 21
0
 31
0.0
  0
LINE
  8
0
 10
762
 20
0
 30
0.0
 11
714.375
 21
-95.25
 31
0.0
  0
LINE
  8
0
 10
714.375
 20
-95.25
 30
0.0
 11
666.75
 21
-95.25
 31
0.0
  0
LINE
  8
0
 10
666.75
 20
-95.25
 30
0.0
 11
619.125
 21
-95.25
 31
0.0
  0
LINE
  8
0
 10
619.125
 20
-95.25
 30
0.0
 11
571.5
 21
-95.25
 31
0.0
  0
LINE
  8
0
 10
571.5
 20
-95.25
 30
0.0
 11
523.875
 21
-95.25
 31
0.0
  0
LINE
  8
0
 10
523.875
 20
-95.25
 30
0.0
 11
476.25
 21
-95.25
 31
0.0
  0
LINE
  8
0
 10
476.25
 20
-95.25
 30
0.0
 11
428.625
 21
-95.25
 31
0.0
  0
LINE
  8
0
 10
428.625
 20
-95.25
 30
0.0
 11
381
 21
-95.25
 31
0.0
  0
LINE
  8
0
 10
381
 20
-95.25
 30
0.0
 11
333.375
 21
-95.25
 31
0.0
  0
LINE
  8
0
 10
333.375
 20
-95.25
 30
0.0
 11
285.75
 21
-95.25
 31
0.0
  0
LINE
  8
0
 10
285.75
 20
-95.25
 30
0.0
 11
238.125
 21
-95.25
 31
0.0
  0
LINE
  8
0
 10
238.125
 20
-95.25
 30
0.0
 11
190.5
 21
-95.25
 31
0.0
  0
LINE
  8
0
 10
190.5
 20
-95.25
 30
0.0
 11
142.875
 21
-95.25
 31
0.0
  0
LINE
  8
0
 10
142.875
 20
-95.25
 30
0.0
 11
95.25
 21
-95.25
 31
0.0
  0
LINE
  8
0
 10
95.25
 20
-95.25
 30
0.0
 11
47.625
 21
-95.25
 31
0.0
  0
LINE
  8
0
 10
47.625
 20
-95.25
 30
0.0
 11
95.25
 21
-190.5
 31
0.0
  0
LINE
  8
0
 10
95.25
 20
-190.5
 30
0.0
 11
142.875
 21
-190.5
 31
0.0
  0
LINE
  8
0
 10
142.875
 20
-190.5
 30
0.0
 11
190.5
 21
-190.5
 31
0.0
  0
LINE
  8
0
 10
190.5
 20
-190.5
 30
0.0
 11
238.125
 21
-190.5
 31
0.0
  0
LINE
  8
0
 10
238.125
 20
-190.5
 30
0.0
 11
285.75
 21
-190.5
 31
0.0
  0
LINE
  8
0
 10
285.75
 20
-190.5
 30
0.0
 11
333.375
 21
-190.5
 31
0.0
  0
LINE
  8
0
 10
333.375
 20
-190.5
 30
0.0
 11
381
 21
-190.5
 31
0.0
  0
LINE
  8
0
 10
381
 20
-190.5
 30
0.0
 11
428.625
 21
-190.5
 31
0.0
  0
LINE
  8
0
 10
428.625
 20
-190.5
 30
0.0
 11
476.25
 21
-190.5
 31
0.0
  0
LINE
  8
0
 10
476.25
 20
-190.5
 30
0.0
 11
523.875
 21
-190.5
 31
0.0
  0
LINE
  8
0
 10
523.875
 20
-190.5
 30
0.0
 11
571.5
 21
-190.5
 31
0.0
  0
LINE
  8
0
 10
571.5
 20
-190.5
 30
0.0
 11
619.125
 21
-190.5
 31
0.0
  0
LINE
  8
0
 10
619.125
 20
-190.5
 30
0.0
 11
666.75
 21
-190.5
 31
0.0
  0
LINE
  8
0
 10
666.75
 20
-190.5
 30
0.0
 11
619.125
 21
-285.75
 31
0.0
  0
LINE
  8
0
 10
619.125
 20
-285.75
 30
0.0
 11
571.5
 21
-285.75
 31
0.0
  0
LINE
  8
0
 10
571.5
 20
-285.75
 30
0.0
 11
523.875
 21
-285.75
 31
0.0
  0
LINE
  8
0
 10
523.875
 20
-285.75
 30
0.0
 11
476.25
 21
-285.75
 31
0.0
  0
LINE
  8
0
 10
476.25
 20
-285.75
 30
0.0
 11
428.625
 21
-285.75
 31
0.0
  0
LINE
  8
0
 10
428.625
 20
-285.75
 30
0.0
 11
381
 21
-285.75
 31
0.0
  0
LINE
  8
0
 10
381
 20
-285.75
 30
0.0
 11
333.375
 21
-285.75
 31
0.0
  0
LINE
  8
0
 10
333.375
 20
-285.75
 30
0.0
 11
285.75
 21
-285.75
 31
0.0
  0
LINE
  8
0
 10
285.75
 20
-285.75
 30
0.0
 11
238.125
 21
-285.75
 31
0.0
  0
LINE
  8
0
 10
238.125
 20
-285.75
 30
0.0
 11
190.5
 21
-285.75
 31
0.0
  0
LINE
  8
0
 10
190.5
 20
-285.75
 30
0.0
 11
142.875
 21
-285.75
 31
0.0
  0
LINE
  8
0
 10
142.875
 20
-285.75
 30
0.0
 11
190.5
 21
-381
 31
0.0
  0
LINE
  8
0
 10
190.5
 20
-381
 30
0.0
 11
238.125
 21
-381
 31
0.0
  0
LINE
  8
0
 10
238.125
 20
-381
 30
0.0
 11
285.75
 21
-381
 31
0.0
  0
LINE
  8
0
 10
285.75
 20
-381
 30
0.0
 11
333.375
 21
-381
 31
0.0
  0
LINE
  8
0
 10
333.375
 20
-381
 30
0.0
 11
381
 21
-381
 31
0.0
  0
LINE
  8
0
 10
381
 20
-381
 30
0.0
 11
428.625
 21
-381
 31
0.0
  0
LINE
  8
0
 10
428.625
 20
-381
 30
0.0
 11
476.25
 21
-381
 31
0.0
  0
LINE
  8
0
 10
476.25
 20
-381
 30
0.0
 11
523.875
 21
-381
 31
0.0
  0
LINE
  8
0
 10
523.875
 20
-381
 30
0.0
 11
571.5
 21
-381
 31
0.0
  0
LINE
  8
0
 10
571.5
 20
-381
 30
0.0
 11
523.875
 21
-476.25
 31
0.0
  0
LINE
  8
0
 10
523.875
 20
-476.25
 30
0.0
 11
476.25
 21
-476.25
 31
0.0
  0
LINE
  8
0
 10
476.25
 20
-476.25
 30
0.0
 11
428.625
 21
-476.25
 31
0.0
  0
LINE
  8
0
 10
428.625
 20
-476.25
 30
0.0
 11
381
 21
-476.25
 31
0.0
  0
LINE
  8
0
 10
381
 20
-476.25
 30
0.0
 11
333.375
 21
-476.25
 31
0.0
  0
LINE
  8
0
 10
333.375
 20
-476.25
 30
0.0
 11
285.75
 21
-476.25
 31
0.0
  0
LINE
  8
0
 10
285.75
 20
-476.25
 30
0.0
 11
238.125
 21
-476.25
 31
0.0
  0
LINE
  8
0
 10
238.125
 20
-476.25
 30
0.0
 11
285.75
 21
-571.5
 31
0.0
  0
LINE
  8
0
 10
285.75
 20
-571.5
 30
0.0
 11
333.375
 21
-571.5
 31
0.0
  0
LINE
  8
0
 10
333.375
 20
-571.5
 30
0.0
 11
381
 21
-571.5
 31
0.0
  0
LINE
  8
0
 10
381
 20
-571.5
 30
0.0
 11
428.625
 21
-571.5
 31
0.0
  0
LINE
  8
0
 10
428.625
 20
-571.5
 30
0.0
 11
476.25
 21
-571.5
 31
0.0
  0
LINE
  8
0
 10
476.25
 20
-571.5
 30
0.0
 11
428.625
 21
-666.75
 31
0.0
  0
LINE
  8
0
 10
428.625
 20
-666.75
 30
0.0
 11
381
 21
-666.75
 31
0.0
  0
LINE
  8
0
 10
381
 20
-666.75
 30
0.0
 11
333.375
 21
-666.75
 31
0.0
  0
LINE
  8
0
 10
333.375
 20
-666.75
 30
0.0
 11
381
 21
-762
 31
0.0
  0
CIRCLE
  8
0
 10
1000
 20
7000
 30
0.0
 40
100
  0
CIRCLE
  8
0
 10
2500
 20
7000
 30
0.0
 40
100
  0
CIRCLE
  8
0
 10
100
 20
100
 30
0.0
 40
125
  0
CIRCLE
  8
0
 10
200
 20
200
 30
0.0
 40
200
  0
CIRCLE
  8
0
 10
300
 20
300
 30
0.0
 40
200
  0
CIRCLE
  8
0
 10
350
 20
350
 30
0.0
 40
200
  0
CIRCLE
  8
0
 10
360
 20
360
 30
0.0
 40
200
  0
CIRCLE
  8
0
 10
370
 20
370
 30
0.0
 40
200
  0
ENDSEC
  0
EOF
