  0
SECTION
  2
ENTITIES
  0
ARC
  8
0
 10
381
 20
635
 30
0.0
 40
127
 50
89.99999
 51
270
  0
ARC
  8
0
 10
380.9987
 20
381
 30
0.0
 40
127
 50
270
 51
89.99982
  0
CIRCLE
  8
0
 10
1000
 20
8000
 30
0.0
 40
100
  0
CIRCLE
  8
0
 10
1500
 20
7000
 30
0.0
 40
100
  0
CIRCLE
  8
0
 10
2000
 20
8000
 30
0.0
 40
100
  0
CIRCLE
  8
0
 10
2500
 20
7000
 30
0.0
 40
100
  0
CIRCLE
  8
0
 10
3000
 20
8000
 30
0.0
 40
100
  0
CIRCLE
  8
0
 10
100
 20
100
 30
0.0
 40
127
  0
CIRCLE
  8
0
 10
200
 20
200
 30
0.0
 40
203
  0
CIRCLE
  8
0
 10
300
 20
300
 30
0.0
 40
200
  0
CIRCLE
  8
0
 10
350
 20
350
 30
0.0
 40
200
  0
CIRCLE
  8
0
 10
360
 20
360
 30
0.0
 40
200
  0
CIRCLE
  8
0
 10
370
 20
370
 30
0.0
 40
200
  0
ENDSEC
  0
EOF
