  0
SECTION
  2
ENTITIES
  0
LINE
  8
0
 10
5375.192
 20
2068.93
 30
0.0
 11
5315.192
 21
1747.931
 31
0.0
  0
LINE
  8
0
 10
5315.192
 20
1747.931
 30
0.0
 11
5121.203
 21
1687.931
 31
0.0
  0
LINE
  8
0
 10
5121.203
 20
1687.931
 30
0.0
 11
4927.204
 21
1627.931
 31
0.0
  0
LINE
  8
0
 10
4927.204
 20
1627.931
 30
0.0
 11
4867.204
 21
1306.931
 31
0.0
  0
LINE
  8
0
 10
4867.204
 20
1306.931
 30
0.0
 11
4927.204
 21
985.9313
 31
0.0
  0
LINE
  8
0
 10
4927.204
 20
985.9313
 30
0.0
 11
5121.203
 21
925.9313
 31
0.0
  0
LINE
  8
0
 10
5121.203
 20
925.9313
 30
0.0
 11
5315.192
 21
865.9313
 31
0.0
  0
LINE
  8
0
 10
5315.192
 20
865.9313
 30
0.0
 11
5375.192
 21
544.9304
 31
0.0
  0
CIRCLE
  8
0
 10
1000
 20
7000
 30
0.0
 40
100
  0
CIRCLE
  8
0
 10
1000
 20
8000
 30
0.0
 40
100
  0
CIRCLE
  8
0
 10
2000
 20
7000
 30
0.0
 40
100
  0
CIRCLE
  8
0
 10
2000
 20
8000
 30
0.0
 40
100
  0
CIRCLE
  8
0
 10
3000
 20
7000
 30
0.0
 40
100
  0
CIRCLE
  8
0
 10
3000
 20
8000
 30
0.0
 40
100
  0
CIRCLE
  8
0
 10
100
 20
100
 30
0.0
 40
125
  0
CIRCLE
  8
0
 10
200
 20
200
 30
0.0
 40
200
  0
CIRCLE
  8
0
 10
300
 20
300
 30
0.0
 40
200
  0
CIRCLE
  8
0
 10
350
 20
350
 30
0.0
 40
200
  0
CIRCLE
  8
0
 10
360
 20
360
 30
0.0
 40
200
  0
CIRCLE
  8
0
 10
370
 20
370
 30
0.0
 40
200
  0
ENDSEC
  0
EOF
