  0
SECTION
  2
ENTITIES
  0
ARC
  8
0
 10
-1771.109
 20
1517.099
 30
0.0
 40
247.2005
 50
268.4012
 51
1.597789
  0
ARC
  8
0
 10
-1784.9
 20
1022.89
 30
0.0
 40
247.2005
 50
88.40207
 51
181.5988
  0
ARC
  8
0
 10
-2025.112
 20
768.889
 30
0.0
 40
247.2005
 50
358.4014
 51
91.5978
  0
ARC
  8
0
 10
-1530.903
 20
755.0956
 30
0.0
 40
247.2005
 50
178.4014
 51
271.5979
  0
CIRCLE
  8
0
 10
1000
 20
8000
 30
0.0
 40
100
  0
CIRCLE
  8
0
 10
1500
 20
7000
 30
0.0
 40
100
  0
CIRCLE
  8
0
 10
2000
 20
8000
 30
0.0
 40
100
  0
CIRCLE
  8
0
 10
2500
 20
7000
 30
0.0
 40
100
  0
CIRCLE
  8
0
 10
3000
 20
8000
 30
0.0
 40
100
  0
CIRCLE
  8
0
 10
100
 20
100
 30
0.0
 40
127
  0
CIRCLE
  8
0
 10
200
 20
200
 30
0.0
 40
205
  0
CIRCLE
  8
0
 10
300
 20
300
 30
0.0
 40
200
  0
CIRCLE
  8
0
 10
350
 20
350
 30
0.0
 40
200
  0
CIRCLE
  8
0
 10
360
 20
360
 30
0.0
 40
200
  0
CIRCLE
  8
0
 10
370
 20
370
 30
0.0
 40
200
  0
ENDSEC
  0
EOF
