  0
SECTION
  2
ENTITIES
  0
LINE
  8
0
 10
4918.003
 20
2754.731
 30
0.0
 11
5045.015
 21
2627.731
 31
0.0
  0
LINE
  8
0
 10
5045.015
 20
2627.731
 30
0.0
 11
5045.015
 21
2119.731
 31
0.0
  0
LINE
  8
0
 10
5045.015
 20
2119.731
 30
0.0
 11
5172.002
 21
1992.732
 31
0.0
  0
LINE
  8
0
 10
5172.002
 20
1992.732
 30
0.0
 11
5045.015
 21
1865.731
 31
0.0
  0
LINE
  8
0
 10
5045.015
 20
1865.731
 30
0.0
 11
5045.015
 21
1357.732
 31
0.0
  0
LINE
  8
0
 10
5045.015
 20
1357.732
 30
0.0
 11
4918.003
 21
1230.731
 31
0.0
  0
CIRCLE
  8
0
 10
1000
 20
7000
 30
0.0
 40
100
  0
CIRCLE
  8
0
 10
1500
 20
8000
 30
0.0
 40
100
  0
CIRCLE
  8
0
 10
2000
 20
7000
 30
0.0
 40
100
  0
CIRCLE
  8
0
 10
100
 20
100
 30
0.0
 40
125
  0
CIRCLE
  8
0
 10
200
 20
200
 30
0.0
 40
200
  0
CIRCLE
  8
0
 10
300
 20
300
 30
0.0
 40
200
  0
CIRCLE
  8
0
 10
350
 20
350
 30
0.0
 40
200
  0
CIRCLE
  8
0
 10
360
 20
360
 30
0.0
 40
200
  0
CIRCLE
  8
0
 10
370
 20
370
 30
0.0
 40
200
  0
ENDSEC
  0
EOF
