  0
SECTION
  2
ENTITIES
  0
LINE
  8
0
 10
4738.003
 20
2106.93
 30
0.0
 11
4738.003
 21
1726.93
 31
0.0
  0
LINE
  8
0
 10
4738.003
 20
1726.93
 30
0.0
 11
4938.003
 21
1344.931
 31
0.0
  0
LINE
  8
0
 10
4938.003
 20
1344.931
 30
0.0
 11
4938.003
 21
964.9311
 31
0.0
  0
LINE
  8
0
 10
4938.003
 20
964.9311
 30
0.0
 11
4738.003
 21
582.9304
 31
0.0
  0
CIRCLE
  8
0
 10
1000
 20
7000
 30
0.0
 40
100
  0
CIRCLE
  8
0
 10
1500
 20
8000
 30
0.0
 40
100
  0
CIRCLE
  8
0
 10
2000
 20
7000
 30
0.0
 40
100
  0
CIRCLE
  8
0
 10
100
 20
100
 30
0.0
 40
125
  0
CIRCLE
  8
0
 10
200
 20
200
 30
0.0
 40
200
  0
CIRCLE
  8
0
 10
300
 20
300
 30
0.0
 40
200
  0
CIRCLE
  8
0
 10
350
 20
350
 30
0.0
 40
200
  0
CIRCLE
  8
0
 10
360
 20
360
 30
0.0
 40
200
  0
CIRCLE
  8
0
 10
370
 20
370
 30
0.0
 40
200
  0
ENDSEC
  0
EOF
