  0
SECTION
  2
ENTITIES
  0
ARC
  8
0
 10
332.3333
 20
43.77503
 30
0.0
 40
349.7437
 50
80.69022
 51
185.8857
  0
ARC
  8
0
 10
39.96262
 20
76.221
 30
0.0
 40
88.03217
 50
230.8919
 51
22.19632
  0
ARC
  8
0
 10
414.1724
 20
97.03739
 30
0.0
 40
292.9655
 50
94.94634
 51
177.5664
  0
ARC
  8
0
 10
427.8053
 20
203.1205
 30
0.0
 40
189.8185
 50
101.8233
 51
186.2481
  0
ARC
  8
0
 10
172.8363
 20
157.9892
 30
0.0
 40
70.65208
 50
223.3634
 51
20.2667
  0
ARC
  8
0
 10
39.96262
 20
76.221
 30
0.0
 40
88.03217
 50
230.8919
 51
22.19632
  0
ARC
  8
0
 10
-71.09647
 20
-60.39719
 30
0.0
 40
88.03217
 50
50.89187
 51
202.1965
  0
ARC
  8
0
 10
-203.9701
 20
-142.1653
 30
0.0
 40
70.65208
 50
43.36337
 51
200.267
  0
ARC
  8
0
 10
-458.9393
 20
-187.2964
 30
0.0
 40
189.8185
 50
281.8232
 51
6.248041
  0
ARC
  8
0
 10
-445.3062
 20
-81.2133
 30
0.0
 40
292.9655
 50
274.9463
 51
357.5663
  0
ARC
  8
0
 10
-71.09647
 20
-60.39719
 30
0.0
 40
88.03217
 50
50.89187
 51
202.1965
  0
ARC
  8
0
 10
-363.4671
 20
-27.95106
 30
0.0
 40
349.7437
 50
260.6904
 51
5.885656
  0
ARC
  8
0
 10
-363.4671
 20
-718.2249
 30
0.0
 40
349.7437
 50
354.1143
 51
99.30965
  0
ARC
  8
0
 10
-71.09647
 20
-685.7787
 30
0.0
 40
88.03217
 50
157.8035
 51
309.1081
  0
ARC
  8
0
 10
-445.3062
 20
-664.9626
 30
0.0
 40
292.9655
 50
2.433919
 51
85.05405
  0
ARC
  8
0
 10
-458.9393
 20
-558.8795
 30
0.0
 40
189.8185
 50
353.7519
 51
78.17706
  0
ARC
  8
0
 10
-203.9701
 20
-604.0106
 30
0.0
 40
70.65208
 50
159.7332
 51
316.6366
  0
ARC
  8
0
 10
-71.09647
 20
-685.7787
 30
0.0
 40
88.03217
 50
157.8035
 51
309.1081
  0
ARC
  8
0
 10
39.96262
 20
-822.3969
 30
0.0
 40
88.03217
 50
337.8037
 51
129.1082
  0
ARC
  8
0
 10
172.8363
 20
-904.1651
 30
0.0
 40
70.65208
 50
339.7333
 51
136.6368
  0
ARC
  8
0
 10
427.8053
 20
-949.2964
 30
0.0
 40
189.8185
 50
173.752
 51
258.1769
  0
ARC
  8
0
 10
414.1724
 20
-843.2133
 30
0.0
 40
292.9655
 50
182.4337
 51
265.0538
  0
ARC
  8
0
 10
39.96262
 20
-822.3969
 30
0.0
 40
88.03217
 50
337.8037
 51
129.1082
  0
ARC
  8
0
 10
332.3333
 20
-789.951
 30
0.0
 40
349.7437
 50
174.1144
 51
279.3097
  0
CIRCLE
  8
0
 10
1000
 20
7000
 30
0.0
 40
100
  0
CIRCLE
  8
0
 10
2000
 20
8000
 30
0.0
 40
100
  0
CIRCLE
  8
0
 10
3000
 20
7000
 30
0.0
 40
100
  0
CIRCLE
  8
0
 10
100
 20
100
 30
0.0
 40
125
  0
CIRCLE
  8
0
 10
200
 20
200
 30
0.0
 40
200
  0
CIRCLE
  8
0
 10
300
 20
300
 30
0.0
 40
200
  0
CIRCLE
  8
0
 10
350
 20
350
 30
0.0
 40
200
  0
CIRCLE
  8
0
 10
360
 20
360
 30
0.0
 40
200
  0
CIRCLE
  8
0
 10
370
 20
370
 30
0.0
 40
200
  0
ENDSEC
  0
EOF
