  0
SECTION
  2
ENTITIES
  0
LINE
  8
0
 10
4668.898
 20
2114.656
 30
0.0
 11
4922.897
 21
1860.657
 31
0.0
  0
LINE
  8
0
 10
4922.897
 20
1860.657
 30
0.0
 11
4922.897
 21
1352.656
 31
0.0
  0
LINE
  8
0
 10
4922.897
 20
1352.656
 30
0.0
 11
4668.898
 21
1098.656
 31
0.0
  0
LINE
  8
0
 10
4668.898
 20
1098.656
 30
0.0
 11
4668.898
 21
590.656
 31
0.0
  0
CIRCLE
  8
0
 10
1000
 20
7000
 30
0.0
 40
100
  0
CIRCLE
  8
0
 10
1500
 20
8000
 30
0.0
 40
100
  0
CIRCLE
  8
0
 10
2000
 20
7000
 30
0.0
 40
100
  0
CIRCLE
  8
0
 10
100
 20
100
 30
0.0
 40
125
  0
CIRCLE
  8
0
 10
200
 20
200
 30
0.0
 40
200
  0
CIRCLE
  8
0
 10
300
 20
300
 30
0.0
 40
200
  0
CIRCLE
  8
0
 10
350
 20
350
 30
0.0
 40
200
  0
CIRCLE
  8
0
 10
360
 20
360
 30
0.0
 40
200
  0
CIRCLE
  8
0
 10
370
 20
370
 30
0.0
 40
200
  0
ENDSEC
  0
EOF
