  0
SECTION
  2
ENTITIES
  0
LINE
  8
0
 10
4899.394
 20
1385.722
 30
0.0
 11
4919.394
 21
1278.721
 31
0.0
  0
LINE
  8
0
 10
4919.394
 20
1278.721
 30
0.0
 11
5026.381
 21
1258.721
 31
0.0
  0
LINE
  8
0
 10
5026.381
 20
1258.721
 30
0.0
 11
5133.383
 21
1238.721
 31
0.0
  0
LINE
  8
0
 10
5133.383
 20
1238.721
 30
0.0
 11
5153.383
 21
1131.722
 31
0.0
  0
LINE
  8
0
 10
5153.383
 20
1131.722
 30
0.0
 11
5133.383
 21
1024.721
 31
0.0
  0
LINE
  8
0
 10
5133.383
 20
1024.721
 30
0.0
 11
5026.381
 21
1004.721
 31
0.0
  0
LINE
  8
0
 10
5026.381
 20
1004.721
 30
0.0
 11
4919.394
 21
984.7214
 31
0.0
  0
LINE
  8
0
 10
4919.394
 20
984.7214
 30
0.0
 11
4899.394
 21
877.722
 31
0.0
  0
CIRCLE
  8
0
 10
1000
 20
7000
 30
0.0
 40
100
  0
CIRCLE
  8
0
 10
1000
 20
8000
 30
0.0
 40
100
  0
CIRCLE
  8
0
 10
1500
 20
7000
 30
0.0
 40
100
  0
CIRCLE
  8
0
 10
1500
 20
8000
 30
0.0
 40
100
  0
CIRCLE
  8
0
 10
100
 20
100
 30
0.0
 40
125
  0
CIRCLE
  8
0
 10
200
 20
200
 30
0.0
 40
200
  0
CIRCLE
  8
0
 10
300
 20
300
 30
0.0
 40
200
  0
CIRCLE
  8
0
 10
350
 20
350
 30
0.0
 40
200
  0
CIRCLE
  8
0
 10
360
 20
360
 30
0.0
 40
200
  0
CIRCLE
  8
0
 10
370
 20
370
 30
0.0
 40
200
  0
ENDSEC
  0
EOF
