  0
SECTION
  2
ENTITIES
  0
ARC
  8
0
 10
4803.998
 20
1981.47
 30
0.0
 40
63.50004
 50
0
 51
89.99999
  0
ARC
  8
0
 10
4867.499
 20
1917.971
 30
0.0
 40
63.50004
 50
0
 51
89.99999
  0
ARC
  8
0
 10
4931
 20
1854.471
 30
0.0
 40
63.50004
 50
0
 51
89.99999
  0
ARC
  8
0
 10
4994.51
 20
1790.97
 30
0.0
 40
63.50004
 50
0
 51
89.99999
  0
ARC
  8
0
 10
5058.001
 20
1727.47
 30
0.0
 40
63.50004
 50
0
 51
89.99999
  0
ARC
  8
0
 10
5121.498
 20
1663.97
 30
0.0
 40
63.50004
 50
0
 51
89.99999
  0
ARC
  8
0
 10
5184.999
 20
1600.47
 30
0.0
 40
63.50004
 50
0
 51
89.99999
  0
ARC
  8
0
 10
5248.5
 20
1536.971
 30
0.0
 40
63.50004
 50
0
 51
89.99999
  0
ARC
  8
0
 10
5312.011
 20
1473.47
 30
0.0
 40
63.50004
 50
0
 51
89.99999
  0
ARC
  8
0
 10
5375.502
 20
1409.97
 30
0.0
 40
63.50004
 50
0
 51
89.99999
  0
ARC
  8
0
 10
5438.998
 20
1346.47
 30
0.0
 40
63.50004
 50
0
 51
89.99999
  0
ARC
  8
0
 10
5502.499
 20
1282.97
 30
0.0
 40
63.50004
 50
0
 51
89.99999
  0
ARC
  8
0
 10
5565.999
 20
1219.47
 30
0.0
 40
63.50004
 50
89.99999
 51
180
  0
ARC
  8
0
 10
5502.499
 20
1155.969
 30
0.0
 40
63.50004
 50
89.99999
 51
179.9998
  0
ARC
  8
0
 10
5438.998
 20
1092.473
 30
0.0
 40
63.50004
 50
89.99999
 51
180
  0
ARC
  8
0
 10
5375.499
 20
1028.982
 30
0.0
 40
63.50004
 50
89.99999
 51
180
  0
ARC
  8
0
 10
5311.999
 20
965.4713
 30
0.0
 40
63.50004
 50
89.99999
 51
179.9999
  0
ARC
  8
0
 10
5248.499
 20
901.9703
 30
0.0
 40
63.50004
 50
89.99999
 51
179.9999
  0
ARC
  8
0
 10
5184.999
 20
838.4694
 30
0.0
 40
63.50004
 50
89.99999
 51
179.9998
  0
ARC
  8
0
 10
5121.498
 20
774.9724
 30
0.0
 40
63.50004
 50
89.99999
 51
179.9999
  0
ARC
  8
0
 10
5057.998
 20
711.4813
 30
0.0
 40
63.50004
 50
89.99999
 51
179.9999
  0
ARC
  8
0
 10
4994.498
 20
647.9716
 30
0.0
 40
63.50004
 50
89.99999
 51
179.9999
  0
ARC
  8
0
 10
4930.998
 20
584.4706
 30
0.0
 40
63.50004
 50
89.99999
 51
179.9999
  0
ARC
  8
0
 10
4867.498
 20
520.9697
 30
0.0
 40
63.50004
 50
89.99999
 51
179.9999
  0
CIRCLE
  8
0
 10
1000
 20
7000
 30
0.0
 40
100
  0
CIRCLE
  8
0
 10
1500
 20
8000
 30
0.0
 40
100
  0
CIRCLE
  8
0
 10
2000
 20
7000
 30
0.0
 40
100
  0
CIRCLE
  8
0
 10
100
 20
100
 30
0.0
 40
125
  0
CIRCLE
  8
0
 10
200
 20
200
 30
0.0
 40
200
  0
CIRCLE
  8
0
 10
300
 20
300
 30
0.0
 40
200
  0
CIRCLE
  8
0
 10
350
 20
350
 30
0.0
 40
200
  0
CIRCLE
  8
0
 10
360
 20
360
 30
0.0
 40
200
  0
CIRCLE
  8
0
 10
370
 20
370
 30
0.0
 40
200
  0
ENDSEC
  0
EOF
