  0
SECTION
  2
ENTITIES
  0
ARC
  8
0
 10
4911.901
 20
2513.081
 30
0.0
 40
254.0002
 50
0
 51
89.99999
  0
ARC
  8
0
 10
5165.9
 20
2259.081
 30
0.0
 40
254.0002
 50
0
 51
89.99999
  0
ARC
  8
0
 10
5419.89
 20
2005.081
 30
0.0
 40
254.0002
 50
0
 51
89.99999
  0
ARC
  8
0
 10
5673.889
 20
1751.08
 30
0.0
 40
254.0002
 50
89.99999
 51
180
  0
ARC
  8
0
 10
5419.89
 20
1497.08
 30
0.0
 40
254.0002
 50
89.99999
 51
180
  0
ARC
  8
0
 10
5165.9
 20
1243.081
 30
0.0
 40
254.0002
 50
89.99999
 51
180
  0
CIRCLE
  8
0
 10
1000
 20
7000
 30
0.0
 40
100
  0
CIRCLE
  8
0
 10
1500
 20
8000
 30
0.0
 40
100
  0
CIRCLE
  8
0
 10
2000
 20
7000
 30
0.0
 40
100
  0
CIRCLE
  8
0
 10
100
 20
100
 30
0.0
 40
125
  0
CIRCLE
  8
0
 10
200
 20
200
 30
0.0
 40
200
  0
CIRCLE
  8
0
 10
300
 20
300
 30
0.0
 40
200
  0
CIRCLE
  8
0
 10
350
 20
350
 30
0.0
 40
200
  0
CIRCLE
  8
0
 10
360
 20
360
 30
0.0
 40
200
  0
CIRCLE
  8
0
 10
370
 20
370
 30
0.0
 40
200
  0
ENDSEC
  0
EOF
