  0
SECTION
  2
ENTITIES
  0
ARC
  8
0
 10
4948.059
 20
2136.175
 30
0.0
 40
281.4492
 50
88.28232
 51
139.5303
  0
ARC
  8
0
 10
4855.632
 20
2225.874
 30
0.0
 40
153.1317
 50
142.6171
 51
179.5799
  0
ARC
  8
0
 10
4855.632
 20
2228.115
 30
0.0
 40
153.1317
 50
180.4201
 51
217.3829
  0
ARC
  8
0
 10
4948.059
 20
2317.814
 30
0.0
 40
281.4492
 50
220.4697
 51
271.7177
  0
ARC
  8
0
 10
4964.938
 20
1755.177
 30
0.0
 40
281.4492
 50
40.46967
 51
91.71767
  0
ARC
  8
0
 10
5057.37
 20
1844.876
 30
0.0
 40
153.1317
 50
.420111
 51
37.38292
  0
ARC
  8
0
 10
5057.37
 20
1847.116
 30
0.0
 40
153.1317
 50
322.6171
 51
359.5799
  0
ARC
  8
0
 10
4964.938
 20
1936.817
 30
0.0
 40
281.4492
 50
268.2823
 51
319.5303
  0
ARC
  8
0
 10
4964.938
 20
1374.18
 30
0.0
 40
281.4492
 50
40.46967
 51
91.71767
  0
ARC
  8
0
 10
5057.37
 20
1463.879
 30
0.0
 40
153.1317
 50
.420111
 51
37.38292
  0
ARC
  8
0
 10
5057.37
 20
1466.119
 30
0.0
 40
153.1317
 50
322.6171
 51
359.5799
  0
ARC
  8
0
 10
4964.938
 20
1555.818
 30
0.0
 40
281.4492
 50
268.2823
 51
319.5303
  0
ARC
  8
0
 10
4948.059
 20
993.182
 30
0.0
 40
281.4492
 50
88.28232
 51
139.5303
  0
ARC
  8
0
 10
4855.632
 20
1082.881
 30
0.0
 40
153.1317
 50
142.6171
 51
179.5799
  0
ARC
  8
0
 10
4855.632
 20
1085.121
 30
0.0
 40
153.1317
 50
180.4201
 51
217.3829
  0
ARC
  8
0
 10
4948.059
 20
1174.82
 30
0.0
 40
281.4492
 50
220.4697
 51
271.7177
  0
CIRCLE
  8
0
 10
1000
 20
7000
 30
0.0
 40
100
  0
CIRCLE
  8
0
 10
1000
 20
8000
 30
0.0
 40
100
  0
CIRCLE
  8
0
 10
2000
 20
7000
 30
0.0
 40
100
  0
CIRCLE
  8
0
 10
2000
 20
8000
 30
0.0
 40
100
  0
CIRCLE
  8
0
 10
100
 20
100
 30
0.0
 40
125
  0
CIRCLE
  8
0
 10
200
 20
200
 30
0.0
 40
200
  0
CIRCLE
  8
0
 10
300
 20
300
 30
0.0
 40
200
  0
CIRCLE
  8
0
 10
350
 20
350
 30
0.0
 40
200
  0
CIRCLE
  8
0
 10
360
 20
360
 30
0.0
 40
200
  0
CIRCLE
  8
0
 10
370
 20
370
 30
0.0
 40
200
  0
ENDSEC
  0
EOF
