  0
SECTION
  2
ENTITIES
  0
ARC
  8
0
 10
5006.59
 20
1898.93
 30
0.0
 40
206.3748
 50
180
 51
247.3802
  0
ARC
  8
0
 10
4847.84
 20
1517.93
 30
0.0
 40
206.3748
 50
0
 51
67.38012
  0
ARC
  8
0
 10
4847.84
 20
1517.93
 30
0.0
 40
206.3748
 50
292.6198
 51
0
  0
ARC
  8
0
 10
5006.59
 20
1136.93
 30
0.0
 40
206.3748
 50
112.6199
 51
180
  0
CIRCLE
  8
0
 10
1000
 20
7000
 30
0.0
 40
100
  0
CIRCLE
  8
0
 10
1500
 20
7000
 30
0.0
 40
100
  0
CIRCLE
  8
0
 10
2000
 20
7000
 30
0.0
 40
100
  0
CIRCLE
  8
0
 10
100
 20
100
 30
0.0
 40
128
  0
CIRCLE
  8
0
 10
200
 20
200
 30
0.0
 40
200
  0
CIRCLE
  8
0
 10
300
 20
300
 30
0.0
 40
200
  0
CIRCLE
  8
0
 10
350
 20
350
 30
0.0
 40
200
  0
CIRCLE
  8
0
 10
360
 20
360
 30
0.0
 40
200
  0
CIRCLE
  8
0
 10
370
 20
370
 30
0.0
 40
200
  0
ENDSEC
  0
EOF
