  0
SECTION
  2
ENTITIES
  0
ARC
  8
0
 10
4471.341
 20
2403.863
 30
0.0
 40
72.18948
 50
180
 51
270
  0
LINE
  8
0
 10
4471.341
 20
2331.673
 30
0.0
 11
4959.121
 21
1961.262
 31
0.0
  0
ARC
  8
0
 10
4776.524
 20
1641.863
 30
0.0
 40
367.8978
 50
299.7541
 51
60.24587
  0
LINE
  8
0
 10
4959.121
 20
1322.464
 30
0.0
 11
4471.341
 21
952.0523
 31
0.0
  0
ARC
  8
0
 10
4471.341
 20
879.8629
 30
0.0
 40
72.18948
 50
89.99999
 51
180
  0
CIRCLE
  8
0
 10
1000
 20
7000
 30
0.0
 40
100
  0
CIRCLE
  8
0
 10
1500
 20
7000
 30
0.0
 40
100
  0
CIRCLE
  8
0
 10
100
 20
100
 30
0.0
 40
125
  0
CIRCLE
  8
0
 10
200
 20
200
 30
0.0
 40
200
  0
CIRCLE
  8
0
 10
300
 20
300
 30
0.0
 40
200
  0
CIRCLE
  8
0
 10
350
 20
350
 30
0.0
 40
200
  0
CIRCLE
  8
0
 10
360
 20
360
 30
0.0
 40
200
  0
CIRCLE
  8
0
 10
370
 20
370
 30
0.0
 40
200
  0
ENDSEC
  0
EOF
