  0
SECTION
  2
ENTITIES
  0
ARC
  8
0
 10
5180.943
 20
1692.44
 30
0.0
 40
392.2913
 50
229.6479
 51
310.3521
  0
ARC
  8
0
 10
5688.949
 20
1094.53
 30
0.0
 40
392.2913
 50
49.64788
 51
130.3521
  0
ARC
  8
0
 10
6241.909
 20
1139.49
 30
0.0
 40
392.2913
 50
139.6479
 51
220.3521
  0
ARC
  8
0
 10
5644.001
 20
631.4862
 30
0.0
 40
392.2913
 50
319.6479
 51
40.35213
  0
ARC
  8
0
 10
5688.949
 20
78.52039
 30
0.0
 40
392.2913
 50
49.64788
 51
130.3521
  0
ARC
  8
0
 10
5180.943
 20
676.4323
 30
0.0
 40
392.2913
 50
229.6479
 51
310.3521
  0
ARC
  8
0
 10
4627.977
 20
123.4819
 30
0.0
 40
392.2913
 50
319.6479
 51
40.35213
  0
ARC
  8
0
 10
5225.905
 20
-384.522
 30
0.0
 40
392.2913
 50
139.6479
 51
220.3521
  0
CIRCLE
  8
0
 10
1000
 20
7000
 30
0.0
 40
100
  0
CIRCLE
  8
0
 10
3000
 20
7000
 30
0.0
 40
100
  0
CIRCLE
  8
0
 10
100
 20
100
 30
0.0
 40
125
  0
CIRCLE
  8
0
 10
200
 20
200
 30
0.0
 40
200
  0
CIRCLE
  8
0
 10
300
 20
300
 30
0.0
 40
200
  0
CIRCLE
  8
0
 10
350
 20
350
 30
0.0
 40
200
  0
CIRCLE
  8
0
 10
360
 20
360
 30
0.0
 40
200
  0
CIRCLE
  8
0
 10
370
 20
370
 30
0.0
 40
200
  0
ENDSEC
  0
EOF
