  0
SECTION
  2
ENTITIES
  0
ARC
  8
0
 10
5013.678
 20
1476.236
 30
0.0
 40
31.75001
 50
89.99999
 51
180
  0
ARC
  8
0
 10
4981.928
 20
1444.486
 30
0.0
 40
31.75001
 50
0
 51
89.99999
  0
ARC
  8
0
 10
4981.928
 20
1444.486
 30
0.0
 40
31.75001
 50
0
 51
89.99999
  0
ARC
  8
0
 10
4981.928
 20
1444.486
 30
0.0
 40
31.75001
 50
89.99999
 51
180
  0
ARC
  8
0
 10
4950.178
 20
1412.736
 30
0.0
 40
31.75001
 50
0
 51
89.99999
  0
ARC
  8
0
 10
4950.178
 20
1412.736
 30
0.0
 40
31.75001
 50
0
 51
89.99999
  0
ARC
  8
0
 10
4950.178
 20
1412.736
 30
0.0
 40
31.75001
 50
89.99999
 51
180
  0
ARC
  8
0
 10
4918.428
 20
1380.986
 30
0.0
 40
31.75001
 50
0
 51
89.99999
  0
ARC
  8
0
 10
4918.428
 20
1380.986
 30
0.0
 40
31.75001
 50
0
 51
89.99999
  0
ARC
  8
0
 10
4918.428
 20
1380.986
 30
0.0
 40
31.75001
 50
89.99999
 51
180
  0
ARC
  8
0
 10
4886.678
 20
1349.236
 30
0.0
 40
31.75001
 50
0
 51
89.99999
  0
ARC
  8
0
 10
4886.678
 20
1349.236
 30
0.0
 40
31.75001
 50
0
 51
89.99999
  0
ARC
  8
0
 10
4886.678
 20
1349.236
 30
0.0
 40
31.75001
 50
89.99999
 51
180
  0
ARC
  8
0
 10
4854.927
 20
1317.486
 30
0.0
 40
31.75001
 50
0
 51
89.99999
  0
ARC
  8
0
 10
4854.927
 20
1317.486
 30
0.0
 40
31.75001
 50
0
 51
89.99999
  0
ARC
  8
0
 10
4854.927
 20
1317.486
 30
0.0
 40
31.75001
 50
89.99999
 51
180
  0
ARC
  8
0
 10
4823.177
 20
1285.736
 30
0.0
 40
31.75001
 50
0
 51
89.99999
  0
ARC
  8
0
 10
4823.177
 20
1285.736
 30
0.0
 40
31.75001
 50
0
 51
89.99999
  0
ARC
  8
0
 10
4823.177
 20
1285.736
 30
0.0
 40
31.75001
 50
89.99999
 51
180
  0
ARC
  8
0
 10
4791.427
 20
1253.986
 30
0.0
 40
31.75001
 50
0
 51
89.99999
  0
ARC
  8
0
 10
4791.427
 20
1253.986
 30
0.0
 40
31.75001
 50
0
 51
89.99999
  0
ARC
  8
0
 10
4791.427
 20
1253.986
 30
0.0
 40
31.75001
 50
89.99999
 51
180
  0
ARC
  8
0
 10
4759.677
 20
1222.236
 30
0.0
 40
31.75001
 50
0
 51
89.99999
  0
ARC
  8
0
 10
4759.677
 20
1222.236
 30
0.0
 40
31.75001
 50
0
 51
89.99999
  0
ARC
  8
0
 10
4759.677
 20
1222.236
 30
0.0
 40
31.75001
 50
89.99999
 51
180
  0
ARC
  8
0
 10
4727.927
 20
1190.486
 30
0.0
 40
31.75001
 50
0
 51
89.99999
  0
ARC
  8
0
 10
4727.927
 20
1190.486
 30
0.0
 40
31.75001
 50
0
 51
89.99999
  0
ARC
  8
0
 10
4727.927
 20
1190.486
 30
0.0
 40
31.75001
 50
89.99999
 51
180
  0
ARC
  8
0
 10
4696.178
 20
1158.736
 30
0.0
 40
31.75001
 50
0
 51
89.99999
  0
ARC
  8
0
 10
4696.178
 20
1158.736
 30
0.0
 40
31.75001
 50
0
 51
89.99999
  0
ARC
  8
0
 10
4696.178
 20
1158.736
 30
0.0
 40
31.75001
 50
89.99999
 51
180
  0
ARC
  8
0
 10
4664.428
 20
1126.986
 30
0.0
 40
31.75001
 50
0
 51
89.99999
  0
ARC
  8
0
 10
4664.428
 20
1126.986
 30
0.0
 40
31.75001
 50
0
 51
89.99999
  0
ARC
  8
0
 10
4664.428
 20
1126.986
 30
0.0
 40
31.75001
 50
89.99999
 51
180
  0
ARC
  8
0
 10
4632.678
 20
1095.236
 30
0.0
 40
31.75001
 50
0
 51
89.99999
  0
ARC
  8
0
 10
4632.678
 20
1095.236
 30
0.0
 40
31.75001
 50
0
 51
89.99999
  0
ARC
  8
0
 10
4632.678
 20
1095.236
 30
0.0
 40
31.75001
 50
89.99999
 51
180
  0
ARC
  8
0
 10
4600.927
 20
1063.486
 30
0.0
 40
31.75001
 50
0
 51
89.99999
  0
ARC
  8
0
 10
4600.927
 20
1063.486
 30
0.0
 40
31.75001
 50
0
 51
89.99999
  0
ARC
  8
0
 10
4600.927
 20
1063.486
 30
0.0
 40
31.75001
 50
89.99999
 51
180
  0
ARC
  8
0
 10
4569.177
 20
1031.737
 30
0.0
 40
31.75001
 50
0
 51
89.99999
  0
ARC
  8
0
 10
4569.177
 20
1031.737
 30
0.0
 40
31.75001
 50
0
 51
89.99999
  0
ARC
  8
0
 10
4569.177
 20
1031.737
 30
0.0
 40
31.75001
 50
89.99999
 51
180
  0
ARC
  8
0
 10
4537.427
 20
999.9865
 30
0.0
 40
31.75001
 50
0
 51
89.99999
  0
ARC
  8
0
 10
4537.427
 20
999.9865
 30
0.0
 40
31.75001
 50
0
 51
89.99999
  0
ARC
  8
0
 10
4537.427
 20
999.9865
 30
0.0
 40
31.75001
 50
89.99999
 51
180
  0
ARC
  8
0
 10
4505.677
 20
968.2363
 30
0.0
 40
31.75001
 50
0
 51
89.99999
  0
ARC
  8
0
 10
4505.677
 20
968.2363
 30
0.0
 40
31.75001
 50
0
 51
89.99999
  0
ARC
  8
0
 10
4505.677
 20
968.2363
 30
0.0
 40
31.75001
 50
89.99999
 51
180
  0
ARC
  8
0
 10
4473.927
 20
936.4864
 30
0.0
 40
31.75001
 50
0
 51
89.99999
  0
ARC
  8
0
 10
4473.927
 20
936.4864
 30
0.0
 40
31.75001
 50
0
 51
89.99999
  0
ARC
  8
0
 10
4473.927
 20
936.4864
 30
0.0
 40
31.75001
 50
89.99999
 51
180
  0
ARC
  8
0
 10
4442.177
 20
904.7363
 30
0.0
 40
31.75001
 50
0
 51
89.99999
  0
ARC
  8
0
 10
4442.177
 20
904.7363
 30
0.0
 40
31.75001
 50
0
 51
89.99999
  0
ARC
  8
0
 10
4442.177
 20
904.7363
 30
0.0
 40
31.75001
 50
89.99999
 51
180
  0
ARC
  8
0
 10
4410.427
 20
872.9863
 30
0.0
 40
31.75001
 50
0
 51
89.99999
  0
ARC
  8
0
 10
4410.427
 20
872.9863
 30
0.0
 40
31.75001
 50
0
 51
89.99999
  0
ARC
  8
0
 10
4410.427
 20
872.9863
 30
0.0
 40
31.75001
 50
89.99999
 51
180
  0
ARC
  8
0
 10
4378.678
 20
841.2363
 30
0.0
 40
31.75001
 50
0
 51
89.99999
  0
ARC
  8
0
 10
4378.678
 20
841.2363
 30
0.0
 40
31.75001
 50
0
 51
89.99999
  0
ARC
  8
0
 10
4378.678
 20
841.2363
 30
0.0
 40
31.75001
 50
89.99999
 51
180
  0
ARC
  8
0
 10
4346.928
 20
809.4863
 30
0.0
 40
31.75001
 50
0
 51
89.99999
  0
ARC
  8
0
 10
4346.928
 20
809.4863
 30
0.0
 40
31.75001
 50
0
 51
89.99999
  0
ARC
  8
0
 10
4346.928
 20
809.4863
 30
0.0
 40
31.75001
 50
89.99999
 51
180
  0
ARC
  8
0
 10
4315.178
 20
777.7363
 30
0.0
 40
31.75001
 50
0
 51
89.99999
  0
ARC
  8
0
 10
4315.178
 20
777.7363
 30
0.0
 40
31.75001
 50
0
 51
89.99999
  0
ARC
  8
0
 10
4315.178
 20
777.7363
 30
0.0
 40
31.75001
 50
89.99999
 51
180
  0
ARC
  8
0
 10
4283.428
 20
745.9863
 30
0.0
 40
31.75001
 50
0
 51
89.99999
  0
ARC
  8
0
 10
4283.428
 20
745.9863
 30
0.0
 40
31.75001
 50
0
 51
89.99999
  0
ARC
  8
0
 10
4283.428
 20
745.9863
 30
0.0
 40
31.75001
 50
89.99999
 51
180
  0
ARC
  8
0
 10
4251.678
 20
714.2363
 30
0.0
 40
31.75001
 50
0
 51
89.99999
  0
ARC
  8
0
 10
4283.428
 20
682.4862
 30
0.0
 40
31.75001
 50
89.99999
 51
180
  0
ARC
  8
0
 10
4283.428
 20
682.4862
 30
0.0
 40
31.75001
 50
89.99999
 51
180
  0
ARC
  8
0
 10
4283.428
 20
682.4862
 30
0.0
 40
31.75001
 50
0
 51
89.99999
  0
ARC
  8
0
 10
4315.178
 20
650.7363
 30
0.0
 40
31.75001
 50
89.99999
 51
180
  0
ARC
  8
0
 10
4315.178
 20
650.7363
 30
0.0
 40
31.75001
 50
89.99999
 51
180
  0
ARC
  8
0
 10
4315.178
 20
650.7363
 30
0.0
 40
31.75001
 50
0
 51
89.99999
  0
ARC
  8
0
 10
4346.928
 20
618.9862
 30
0.0
 40
31.75001
 50
89.99999
 51
180
  0
ARC
  8
0
 10
4346.928
 20
618.9862
 30
0.0
 40
31.75001
 50
89.99999
 51
180
  0
ARC
  8
0
 10
4346.928
 20
618.9862
 30
0.0
 40
31.75001
 50
0
 51
89.99999
  0
ARC
  8
0
 10
4378.678
 20
587.2362
 30
0.0
 40
31.75001
 50
89.99999
 51
180
  0
ARC
  8
0
 10
4378.678
 20
587.2362
 30
0.0
 40
31.75001
 50
89.99999
 51
180
  0
ARC
  8
0
 10
4378.678
 20
587.2362
 30
0.0
 40
31.75001
 50
0
 51
89.99999
  0
ARC
  8
0
 10
4410.427
 20
555.4863
 30
0.0
 40
31.75001
 50
89.99999
 51
180
  0
ARC
  8
0
 10
4410.427
 20
555.4863
 30
0.0
 40
31.75001
 50
89.99999
 51
180
  0
ARC
  8
0
 10
4410.427
 20
555.4863
 30
0.0
 40
31.75001
 50
0
 51
89.99999
  0
ARC
  8
0
 10
4442.177
 20
523.7362
 30
0.0
 40
31.75001
 50
89.99999
 51
180
  0
ARC
  8
0
 10
4442.177
 20
523.7362
 30
0.0
 40
31.75001
 50
89.99999
 51
180
  0
ARC
  8
0
 10
4442.177
 20
523.7362
 30
0.0
 40
31.75001
 50
0
 51
89.99999
  0
ARC
  8
0
 10
4473.927
 20
491.9862
 30
0.0
 40
31.75001
 50
89.99999
 51
180
  0
ARC
  8
0
 10
4473.927
 20
491.9862
 30
0.0
 40
31.75001
 50
89.99999
 51
180
  0
ARC
  8
0
 10
4473.927
 20
491.9862
 30
0.0
 40
31.75001
 50
0
 51
89.99999
  0
ARC
  8
0
 10
4505.677
 20
460.2362
 30
0.0
 40
31.75001
 50
89.99999
 51
180
  0
ARC
  8
0
 10
4505.677
 20
460.2362
 30
0.0
 40
31.75001
 50
89.99999
 51
180
  0
ARC
  8
0
 10
4505.677
 20
460.2362
 30
0.0
 40
31.75001
 50
0
 51
89.99999
  0
ARC
  8
0
 10
4537.427
 20
428.4862
 30
0.0
 40
31.75001
 50
89.99999
 51
180
  0
ARC
  8
0
 10
4537.427
 20
428.4862
 30
0.0
 40
31.75001
 50
89.99999
 51
180
  0
ARC
  8
0
 10
4537.427
 20
428.4862
 30
0.0
 40
31.75001
 50
0
 51
89.99999
  0
ARC
  8
0
 10
4569.177
 20
396.7362
 30
0.0
 40
31.75001
 50
89.99999
 51
180
  0
ARC
  8
0
 10
4569.177
 20
396.7362
 30
0.0
 40
31.75001
 50
89.99999
 51
180
  0
ARC
  8
0
 10
4569.177
 20
396.7362
 30
0.0
 40
31.75001
 50
0
 51
89.99999
  0
ARC
  8
0
 10
4600.927
 20
364.9862
 30
0.0
 40
31.75001
 50
89.99999
 51
180
  0
ARC
  8
0
 10
4600.927
 20
364.9862
 30
0.0
 40
31.75001
 50
89.99999
 51
180
  0
ARC
  8
0
 10
4600.927
 20
364.9862
 30
0.0
 40
31.75001
 50
0
 51
89.99999
  0
ARC
  8
0
 10
4632.678
 20
333.2362
 30
0.0
 40
31.75001
 50
89.99999
 51
180
  0
ARC
  8
0
 10
4632.678
 20
333.2362
 30
0.0
 40
31.75001
 50
89.99999
 51
180
  0
ARC
  8
0
 10
4632.678
 20
333.2362
 30
0.0
 40
31.75001
 50
0
 51
89.99999
  0
ARC
  8
0
 10
4664.428
 20
301.4861
 30
0.0
 40
31.75001
 50
89.99999
 51
180
  0
ARC
  8
0
 10
4664.428
 20
301.4861
 30
0.0
 40
31.75001
 50
89.99999
 51
180
  0
ARC
  8
0
 10
4664.428
 20
301.4861
 30
0.0
 40
31.75001
 50
0
 51
89.99999
  0
ARC
  8
0
 10
4696.178
 20
269.7362
 30
0.0
 40
31.75001
 50
89.99999
 51
180
  0
ARC
  8
0
 10
4696.178
 20
269.7362
 30
0.0
 40
31.75001
 50
89.99999
 51
180
  0
ARC
  8
0
 10
4696.178
 20
269.7362
 30
0.0
 40
31.75001
 50
0
 51
89.99999
  0
ARC
  8
0
 10
4727.927
 20
237.9862
 30
0.0
 40
31.75001
 50
89.99999
 51
180
  0
ARC
  8
0
 10
4727.927
 20
237.9862
 30
0.0
 40
31.75001
 50
89.99999
 51
180
  0
ARC
  8
0
 10
4727.927
 20
237.9862
 30
0.0
 40
31.75001
 50
0
 51
89.99999
  0
ARC
  8
0
 10
4759.677
 20
206.2361
 30
0.0
 40
31.75001
 50
89.99999
 51
180
  0
ARC
  8
0
 10
4759.677
 20
206.2361
 30
0.0
 40
31.75001
 50
89.99999
 51
180
  0
ARC
  8
0
 10
4759.677
 20
206.2361
 30
0.0
 40
31.75001
 50
0
 51
89.99999
  0
ARC
  8
0
 10
4791.427
 20
174.4862
 30
0.0
 40
31.75001
 50
89.99999
 51
180
  0
ARC
  8
0
 10
4791.427
 20
174.4862
 30
0.0
 40
31.75001
 50
89.99999
 51
180
  0
ARC
  8
0
 10
4791.427
 20
174.4862
 30
0.0
 40
31.75001
 50
0
 51
89.99999
  0
ARC
  8
0
 10
4823.177
 20
142.7362
 30
0.0
 40
31.75001
 50
89.99999
 51
180
  0
ARC
  8
0
 10
4823.177
 20
142.7362
 30
0.0
 40
31.75001
 50
89.99999
 51
180
  0
ARC
  8
0
 10
4823.177
 20
142.7362
 30
0.0
 40
31.75001
 50
0
 51
89.99999
  0
ARC
  8
0
 10
4854.927
 20
110.9861
 30
0.0
 40
31.75001
 50
89.99999
 51
180
  0
ARC
  8
0
 10
4854.927
 20
110.9861
 30
0.0
 40
31.75001
 50
89.99999
 51
180
  0
ARC
  8
0
 10
4854.927
 20
110.9861
 30
0.0
 40
31.75001
 50
0
 51
89.99999
  0
ARC
  8
0
 10
4886.678
 20
79.23616
 30
0.0
 40
31.75001
 50
89.99999
 51
180
  0
ARC
  8
0
 10
4886.678
 20
79.23616
 30
0.0
 40
31.75001
 50
89.99999
 51
180
  0
ARC
  8
0
 10
4886.678
 20
79.23616
 30
0.0
 40
31.75001
 50
0
 51
89.99999
  0
ARC
  8
0
 10
4918.428
 20
47.48613
 30
0.0
 40
31.75001
 50
89.99999
 51
180
  0
ARC
  8
0
 10
4918.428
 20
47.48613
 30
0.0
 40
31.75001
 50
89.99999
 51
180
  0
ARC
  8
0
 10
4918.428
 20
47.48613
 30
0.0
 40
31.75001
 50
0
 51
89.99999
  0
ARC
  8
0
 10
4950.178
 20
15.73612
 30
0.0
 40
31.75001
 50
89.99999
 51
180
  0
ARC
  8
0
 10
4950.178
 20
15.73612
 30
0.0
 40
31.75001
 50
89.99999
 51
180
  0
ARC
  8
0
 10
4950.178
 20
15.73612
 30
0.0
 40
31.75001
 50
0
 51
89.99999
  0
ARC
  8
0
 10
4981.928
 20
-16.01389
 30
0.0
 40
31.75001
 50
89.99999
 51
180
  0
ARC
  8
0
 10
4981.928
 20
-16.01389
 30
0.0
 40
31.75001
 50
89.99999
 51
180
  0
ARC
  8
0
 10
4981.928
 20
-16.01389
 30
0.0
 40
31.75001
 50
0
 51
89.99999
  0
ARC
  8
0
 10
5013.678
 20
-47.7639
 30
0.0
 40
31.75001
 50
89.99999
 51
180
  0
ARC
  8
0
 10
5013.678
 20
-47.7639
 30
0.0
 40
31.75001
 50
89.99999
 51
180
  0
CIRCLE
  8
0
 10
1000
 20
7000
 30
0.0
 40
100
  0
CIRCLE
  8
0
 10
1000
 20
8000
 30
0.0
 40
100
  0
CIRCLE
  8
0
 10
2500
 20
7000
 30
0.0
 40
100
  0
CIRCLE
  8
0
 10
2500
 20
8000
 30
0.0
 40
100
  0
CIRCLE
  8
0
 10
100
 20
100
 30
0.0
 40
125
  0
CIRCLE
  8
0
 10
200
 20
200
 30
0.0
 40
200
  0
CIRCLE
  8
0
 10
300
 20
300
 30
0.0
 40
200
  0
CIRCLE
  8
0
 10
350
 20
350
 30
0.0
 40
200
  0
CIRCLE
  8
0
 10
360
 20
360
 30
0.0
 40
200
  0
CIRCLE
  8
0
 10
370
 20
370
 30
0.0
 40
200
  0
ENDSEC
  0
EOF
