  0
SECTION
  2
ENTITIES
  0
ARC
  8
0
 10
5117.445
 20
1169.271
 30
0.0
 40
294.2172
 50
49.6489
 51
130.353
  0
ARC
  8
0
 10
5498.441
 20
1617.708
 30
0.0
 40
294.2172
 50
229.6488
 51
310.3529
  0
ARC
  8
0
 10
5913.163
 20
1202.989
 30
0.0
 40
294.2172
 50
139.6479
 51
220.3521
  0
ARC
  8
0
 10
5464.733
 20
821.9877
 30
0.0
 40
294.2172
 50
319.6479
 51
40.35213
  0
ARC
  8
0
 10
5498.444
 20
407.2656
 30
0.0
 40
294.2172
 50
49.64788
 51
130.3521
  0
ARC
  8
0
 10
5117.442
 20
855.6975
 30
0.0
 40
294.2172
 50
229.6479
 51
310.3521
  0
ARC
  8
0
 10
4702.719
 20
440.9865
 30
0.0
 40
294.2172
 50
319.6479
 51
40.35213
  0
ARC
  8
0
 10
5151.163
 20
59.98518
 30
0.0
 40
294.2172
 50
139.6479
 51
220.3521
  0
CIRCLE
  8
0
 10
1000
 20
7000
 30
0.0
 40
100
  0
CIRCLE
  8
0
 10
1000
 20
8000
 30
0.0
 40
100
  0
CIRCLE
  8
0
 10
2500
 20
7000
 30
0.0
 40
100
  0
CIRCLE
  8
0
 10
2500
 20
8000
 30
0.0
 40
100
  0
CIRCLE
  8
0
 10
100
 20
100
 30
0.0
 40
125
  0
CIRCLE
  8
0
 10
200
 20
200
 30
0.0
 40
200
  0
CIRCLE
  8
0
 10
300
 20
300
 30
0.0
 40
200
  0
CIRCLE
  8
0
 10
350
 20
350
 30
0.0
 40
200
  0
CIRCLE
  8
0
 10
360
 20
360
 30
0.0
 40
200
  0
CIRCLE
  8
0
 10
370
 20
370
 30
0.0
 40
200
  0
ENDSEC
  0
EOF
