  0
SECTION
  2
ENTITIES
  0
ARC
  8
0
 10
5044.498
 20
2531.01
 30
0.0
 40
83.63401
 50
5.646122
 51
84.35389
  0
ARC
  8
0
 10
5121.29
 20
2501.531
 30
0.0
 40
38.25806
 50
257.0637
 51
80.31643
  0
ARC
  8
0
 10
5157.729
 20
2464.24
 30
0.0
 40
45
 50
180
 51
360
  0
ARC
  8
0
 10
5042.428
 20
2453.942
 30
0.0
 40
160.625
 50
3.674711
 51
86.32527
  0
ARC
  8
0
 10
5042.428
 20
2453.942
 30
0.0
 40
160.625
 50
3.674711
 51
86.32527
  0
ARC
  8
0
 10
5199.629
 20
2380.152
 30
0.0
 40
84.14996
 50
2.106517
 51
87.89351
  0
ARC
  8
0
 10
5286.821
 20
2467.332
 30
0.0
 40
84.14996
 50
182.1065
 51
267.8935
  0
ARC
  8
0
 10
5286.821
 20
2467.332
 30
0.0
 40
84.14996
 50
182.1065
 51
267.8935
  0
ARC
  8
0
 10
5328.731
 20
2383.24
 30
0.0
 40
45
 50
0
 51
180
  0
ARC
  8
0
 10
5365.163
 20
2345.951
 30
0.0
 40
38.25806
 50
77.06374
 51
260.3164
  0
ARC
  8
0
 10
5441.949
 20
2316.471
 30
0.0
 40
83.63401
 50
185.6461
 51
264.3539
  0
ARC
  8
0
 10
5444.02
 20
2393.531
 30
0.0
 40
160.625
 50
183.6747
 51
266.3253
  0
ARC
  8
0
 10
5444.02
 20
2393.531
 30
0.0
 40
160.625
 50
183.6747
 51
266.3253
  0
ARC
  8
0
 10
5350.5
 20
2241.471
 30
0.0
 40
83.63401
 50
275.6461
 51
354.3539
  0
ARC
  8
0
 10
5321.021
 20
2164.672
 30
0.0
 40
38.25806
 50
167.0637
 51
350.3164
  0
ARC
  8
0
 10
5283.73
 20
2128.241
 30
0.0
 40
45
 50
89.99999
 51
270
  0
ARC
  8
0
 10
5273.428
 20
2243.532
 30
0.0
 40
160.625
 50
273.6747
 51
356.3253
  0
ARC
  8
0
 10
5273.428
 20
2243.532
 30
0.0
 40
160.625
 50
273.6747
 51
356.3253
  0
ARC
  8
0
 10
5199.629
 20
2086.332
 30
0.0
 40
84.14996
 50
272.1065
 51
357.8935
  0
ARC
  8
0
 10
5286.821
 20
1999.152
 30
0.0
 40
84.14996
 50
92.10653
 51
177.8935
  0
ARC
  8
0
 10
5286.821
 20
1999.152
 30
0.0
 40
84.14996
 50
92.10653
 51
177.8935
  0
ARC
  8
0
 10
5202.729
 20
1957.241
 30
0.0
 40
45
 50
270
 51
89.99999
  0
ARC
  8
0
 10
5165.439
 20
1920.801
 30
0.0
 40
38.25806
 50
347.0637
 51
170.3164
  0
ARC
  8
0
 10
5135.958
 20
1844.011
 30
0.0
 40
83.63401
 50
95.64615
 51
174.3539
  0
ARC
  8
0
 10
5213.019
 20
1841.941
 30
0.0
 40
160.625
 50
93.67471
 51
176.3253
  0
ARC
  8
0
 10
5213.019
 20
1841.941
 30
0.0
 40
160.625
 50
93.67471
 51
176.3253
  0
ARC
  8
0
 10
4969.498
 20
1860.471
 30
0.0
 40
83.63401
 50
275.6461
 51
354.3539
  0
ARC
  8
0
 10
4940.021
 20
1783.671
 30
0.0
 40
38.25806
 50
167.0637
 51
350.3164
  0
ARC
  8
0
 10
4902.729
 20
1747.241
 30
0.0
 40
45
 50
89.99999
 51
270
  0
ARC
  8
0
 10
4892.428
 20
1862.532
 30
0.0
 40
160.625
 50
273.6747
 51
356.3253
  0
ARC
  8
0
 10
4892.428
 20
1862.532
 30
0.0
 40
160.625
 50
273.6747
 51
356.3253
  0
ARC
  8
0
 10
4905.821
 20
1618.151
 30
0.0
 40
84.14996
 50
92.10653
 51
177.8935
  0
ARC
  8
0
 10
4818.628
 20
1705.331
 30
0.0
 40
84.14996
 50
272.1065
 51
357.8935
  0
ARC
  8
0
 10
4818.628
 20
1705.331
 30
0.0
 40
84.14996
 50
272.1065
 51
357.8935
  0
ARC
  8
0
 10
4821.729
 20
1576.241
 30
0.0
 40
45
 50
270
 51
89.99999
  0
ARC
  8
0
 10
4784.438
 20
1539.801
 30
0.0
 40
38.25806
 50
347.0637
 51
170.3164
  0
ARC
  8
0
 10
4754.961
 20
1463.011
 30
0.0
 40
83.63401
 50
95.64615
 51
174.3539
  0
ARC
  8
0
 10
4832.018
 20
1460.941
 30
0.0
 40
160.625
 50
93.67471
 51
176.3253
  0
ARC
  8
0
 10
4832.018
 20
1460.941
 30
0.0
 40
160.625
 50
93.67471
 51
176.3253
  0
ARC
  8
0
 10
4663.501
 20
1388.011
 30
0.0
 40
83.63401
 50
5.646122
 51
84.35389
  0
ARC
  8
0
 10
4740.289
 20
1358.531
 30
0.0
 40
38.25806
 50
257.0637
 51
80.31643
  0
ARC
  8
0
 10
4776.729
 20
1321.241
 30
0.0
 40
45
 50
180
 51
360
  0
ARC
  8
0
 10
4661.432
 20
1310.941
 30
0.0
 40
160.625
 50
3.674711
 51
86.32527
  0
ARC
  8
0
 10
4661.432
 20
1310.941
 30
0.0
 40
160.625
 50
3.674711
 51
86.32527
  0
ARC
  8
0
 10
4818.628
 20
1237.151
 30
0.0
 40
84.14996
 50
2.106517
 51
87.89351
  0
ARC
  8
0
 10
4905.821
 20
1324.331
 30
0.0
 40
84.14996
 50
182.1065
 51
267.8935
  0
ARC
  8
0
 10
4905.821
 20
1324.331
 30
0.0
 40
84.14996
 50
182.1065
 51
267.8935
  0
ARC
  8
0
 10
4947.729
 20
1240.242
 30
0.0
 40
45
 50
0
 51
180
  0
ARC
  8
0
 10
4984.161
 20
1202.952
 30
0.0
 40
38.25806
 50
77.06374
 51
260.3164
  0
ARC
  8
0
 10
5060.958
 20
1173.472
 30
0.0
 40
83.63401
 50
185.6461
 51
264.3539
  0
ARC
  8
0
 10
5063.019
 20
1250.531
 30
0.0
 40
160.625
 50
183.6747
 51
266.3253
  0
ARC
  8
0
 10
5063.019
 20
1250.531
 30
0.0
 40
160.625
 50
183.6747
 51
266.3253
  0
CIRCLE
  8
0
 10
1000
 20
7000
 30
0.0
 40
100
  0
CIRCLE
  8
0
 10
1000
 20
8000
 30
0.0
 40
100
  0
CIRCLE
  8
0
 10
2500
 20
7000
 30
0.0
 40
100
  0
CIRCLE
  8
0
 10
2500
 20
8000
 30
0.0
 40
100
  0
CIRCLE
  8
0
 10
100
 20
100
 30
0.0
 40
125
  0
CIRCLE
  8
0
 10
200
 20
200
 30
0.0
 40
200
  0
CIRCLE
  8
0
 10
300
 20
300
 30
0.0
 40
200
  0
CIRCLE
  8
0
 10
350
 20
350
 30
0.0
 40
200
  0
CIRCLE
  8
0
 10
360
 20
360
 30
0.0
 40
200
  0
CIRCLE
  8
0
 10
370
 20
370
 30
0.0
 40
200
  0
ENDSEC
  0
EOF
