  0
SECTION
  2
ENTITIES
  0
ARC
  8
0
 10
5106.916
 20
2029.92
 30
0.0
 40
190.4999
 50
0
 51
89.99999
  0
ARC
  8
0
 10
5297.416
 20
1839.42
 30
0.0
 40
190.4999
 50
0
 51
89.99999
  0
ARC
  8
0
 10
5297.416
 20
1839.42
 30
0.0
 40
190.4999
 50
270
 51
0
  0
ARC
  8
0
 10
5106.916
 20
1648.92
 30
0.0
 40
190.4999
 50
270
 51
0
  0
ARC
  8
0
 10
5106.915
 20
1267.92
 30
0.0
 40
190.4999
 50
89.99999
 51
179.9999
  0
ARC
  8
0
 10
4916.415
 20
1077.42
 30
0.0
 40
190.4999
 50
89.99999
 51
179.9999
  0
ARC
  8
0
 10
4916.415
 20
1077.42
 30
0.0
 40
190.4999
 50
179.9999
 51
269.9999
  0
ARC
  8
0
 10
5106.914
 20
886.9198
 30
0.0
 40
190.4999
 50
179.9999
 51
270.0001
  0
CIRCLE
  8
0
 10
1000
 20
7000
 30
0.0
 40
100
  0
CIRCLE
  8
0
 10
1000
 20
8000
 30
0.0
 40
100
  0
CIRCLE
  8
0
 10
2500
 20
7000
 30
0.0
 40
100
  0
CIRCLE
  8
0
 10
2500
 20
8000
 30
0.0
 40
100
  0
CIRCLE
  8
0
 10
100
 20
100
 30
0.0
 40
127
  0
CIRCLE
  8
0
 10
200
 20
200
 30
0.0
 40
187
  0
CIRCLE
  8
0
 10
300
 20
300
 30
0.0
 40
166
  0
CIRCLE
  8
0
 10
350
 20
350
 30
0.0
 40
200
  0
CIRCLE
  8
0
 10
360
 20
360
 30
0.0
 40
200
  0
CIRCLE
  8
0
 10
370
 20
370
 30
0.0
 40
200
  0
ENDSEC
  0
EOF
