  0
SECTION
  2
ENTITIES
  0
ARC
  8
0
 10
4379.604
 20
1950.09
 30
0.0
 40
134.6056
 50
180
 51
250.6474
  0
LINE
  8
0
 10
4335.004
 20
1823.09
 30
0.0
 11
4975.004
 21
1315.09
 31
0.0
  0
ARC
  8
0
 10
4930.395
 20
1188.09
 30
0.0
 40
134.6056
 50
0
 51
70.64747
  0
ARC
  8
0
 10
4930.395
 20
1188.09
 30
0.0
 40
134.6056
 50
289.3525
 51
0
  0
LINE
  8
0
 10
4975.004
 20
1061.09
 30
0.0
 11
4335.004
 21
553.0906
 31
0.0
  0
ARC
  8
0
 10
4379.604
 20
426.0899
 30
0.0
 40
134.6056
 50
109.3525
 51
180
  0
CIRCLE
  8
0
 10
1000
 20
7000
 30
0.0
 40
100
  0
CIRCLE
  8
0
 10
1000
 20
8000
 30
0.0
 40
100
  0
CIRCLE
  8
0
 10
2000
 20
7000
 30
0.0
 40
100
  0
CIRCLE
  8
0
 10
2000
 20
8000
 30
0.0
 40
100
  0
CIRCLE
  8
0
 10
100
 20
100
 30
0.0
 40
125
  0
CIRCLE
  8
0
 10
200
 20
200
 30
0.0
 40
200
  0
CIRCLE
  8
0
 10
300
 20
300
 30
0.0
 40
200
  0
CIRCLE
  8
0
 10
350
 20
350
 30
0.0
 40
200
  0
CIRCLE
  8
0
 10
360
 20
360
 30
0.0
 40
200
  0
CIRCLE
  8
0
 10
370
 20
370
 30
0.0
 40
200
  0
ENDSEC
  0
EOF
